Linkin Park - Papercut, аккорды

Прокрутка
Тональность
Шрифт
100
Intro and most part of the song: 
Guitar 2:
e|-10-10-12-13-10-10-12-13-
B|-10-10-10-10-10-10-10-10-
G|-------------------------
D|-------------------------
A|-------------------------
E|-------------------------
                                                                              
Chorus and Pre-Verse:
--------------------
--------------------
-----------------10-
-0-0-2-2-3-3-2---10-
-0-0-2-2-3-3-2---8--
-0-0-2-2-3-3-2------
                                                                              
Verse: (palm-mute)
-------------
-------------
-------------
-0-0-0-8-7-7-
-0-0-0-8-7-7-
-0-0-0-8-7-7-
                                                                              
Pre-Bridge:
----------------
----------------
----------------
-0-2-3----0-0-0-
-0-2-3----0-0-0-
-0-2-3----0-0-0-

Bridge:
---------------------------------------------
---------------------------------------------
---------------------------------------------
-8-8-8-8-8-8-10-10-10-10-5-5-5-5-5-3-5-5-5-5-
-8-8-8-8-8-8-10-10-10-10-5-5-5-5-5-3-5-5-5-5-
-8-8-8-8-8-8-10-10-10-10-5-5-5-5-5-3-5-5-5-5-
 
 

Видео