Linkin Park - Runaway, аккорды

Прокрутка
Тональность
Шрифт
100
Intro:
E|-----------------------
B|------------------------
G|------------------------
D|-------0---------------
A|--2---------------0----
E|---------------3--------

E|-----------------------
B|------------------------
G|---4---7------------------
D|---4---7-----5----7-------
A|---2---5-----5----7------
E|---------------3---5-----

Можно еще играть так:
E|-----------------------
B|-----------------------
G|-----------------------
D|---9--12------5----7---
A|---9--12------5----7---
E|---7--10-------3---5---

Outro: 
E|-----------------------
B|-----------------------
G|-----------------------
D|---9--9--9--9--9--9p10-
A|---9--9--9--9--9--9p10-
E|---7--7--7--7--7--7p-8-

Комментарий автора:

Lyris:
Graffiti decorations
Underneath a sky of dust
A constant wave of tension
On top of broken trust
The lessons that you taught me
I learn were never true
Now I find myself in question
They point the finger at me again
Guilty by association
You point the finger at me again

Paper bags and angry voices
Under a sky of dust
Another wave of tension
Has more than filled me up
All my talk of taking action
These words were never true
Now I find myself in question
They point the finger at me again
Guilty by association
You point the finger at me again

I wanna run away
Never say goodbye
I wanna know the truth
Instead of wondering why
I wanna know the answers
No more lies
I wanna shut the door
And open up my mind

Gonna run away...     
 
 

Видео