Linkin Park - With You, аккорды

Прокрутка
Тональность
Шрифт
100
Tuning: [CGCFAD]

Intro / opening to chorus:
D-----------------------------
A-----------------------------
F-----------------------------
C-----------------------------
G-----------------------------
C---0-0--0-13/0--0-0-0-0-0-4*-

Verse:
D---20---19------------------------20--------19-
A--------------19---16-------16--------12-------
F-----------------------------------------------
C-----------------------------------------------
G-----------------------------------------------
C-----------------------------------------------

Chorus / second part of intro:
D-------------------------------------------------
A-------------------------------------------------
F--------------------------------7--------------4-
C---2----------------------------5--------------x-
G---0--------------2-------------3--------------5-
C------------------0----------------------------3-

Комментарий автора:

/ = Slide
* = Harmonic
 
 

Видео