Little Big - Antipositive, аккорды

Прокрутка
Тональность
Шрифт
100
Part 1
1|----13---11--13-----------13---16--14--13-------13--11--13------------------------------------
2|-11--------------11---11--------------------11--------------11----16--14--13--11--10--11--13--
3|----------------------------------------------------------------------------------------------
4|----------------------------------------------------------------------------------------------
5|----------------------------------------------------------------------------------------------
6|----------------------------------------------------------------------------------------------
Part 2 (X2)
1|----0------0---------0---3--1--0-----0-----0-----------------------------
2|--------3--------------------------------3---------3--1--0---------------
3|-2-----------2----2---------------2-----------2--------------2--2--1--4--
4|-------------------------------------------------------------------------
5|-------------------------------------------------------------------------
6|-------------------------------------------------------------------------
Проигрыш: Part 1
 Part 2
 Na na na-na-na
 Na na na-na-na
 Na na na-na-na
 Na na na-na-na
 Na na na-na-na
 Na na na-na-na
Am
 Does the government bring up recession
F
 Then policemen in a tone of depression
Am
 Half of people them are living in depression
F
 Now can you tell me 'bout the negative vibration
Am
 On scene Imma mek up the station
F
 Tell till of the bigger vibration
Am
 One original very positive
F
 But so far you only see antipositive

Проигрыш: Part 1

 Part 1
 Only negative vibration
 Only negative vibration
 Only negative vibration
 Fuck you all I'm negative creep

 Part 2
 Na na na-na-na
 Na na na-na-na
 Na na na-na-na
 Fuck you all I'm negative creep
 Na na na-na-na
 Na na na-na-na
 Na na na-na-na
 Fuck you all I'm negative creep
Am
 All them be saying smile your teeth right
F
 All them be saying that the future is bright
Am
 Telling your smiling won't make it right
F
 If you won't stand up and take up the fight
Am
 Many smiling and living deprive ya
F
 Many smiling are form of Chapay yah
Am
 Look out the window, man, put down the pipe
F
 Look out the window, man, we live in deprive

 Part 1
 We live in deprive
 We live in deprive
 We live in deprive
 We live in deprive
 We live in deprive

 Part 1
 Only negative vibration
 (We live in deprive)
 Only negative vibration
 (We live in deprive)
 Only negative vibration
 Fuck you all I'm negative creep

 Part 2
 Na na na-na-na
 Na na na-na-na
 Na na na-na-na
 Fuck you all I'm negative creep

 Part 2
 Na na na-na-na
 Na na na-na-na
 Na na na-na-na
 Fuck you all I'm negative creep

 Part 2
 Fuck you all I'm negative creep
 Fuck you all I'm negative creep

Комментарий автора:

Каподастр на 1 ладу, аккорды играем боем восьмерка. Не забудьте, что Part 2 играется 2 раза
 
 
Свернуть Распечатать

Видео