Lizer - Пачка сигарет, аккорды

Прокрутка
Тональность
Шрифт
100
Перебор(играеться на протяжении всей песни):
   Am                  C        G
E|-----0⌒3⌒0----------0----0---3------------
B|-1--------------1-3------1----------3------
G|---2----------2--------0---------0-----0---
D|-------------------------------------------
A|-0----------0--------3---------------------
E|------------------------------3------------

   Am                  C        G
E|-----0⌒3⌒0----------0----0---3----3⌒5⌒3-
B|-1--------------1-3------1-----------------
G|---2----------2--------0---------0---------
D|-------------------------------------------
A|-0----------0--------3---------------------
E|------------------------------3------------

Припев:
Am
Пачка сигарет в моем кармане
C G
Заставляет жить меня этот день
Am
Я возьму телефон, позвоню своей маме
C G
Мама, почему я хочу умереть?
Am 
Пачка сигарет в моем кармане
C G
Заставляет жить меня этот день
Am 
Я возьму телефон, позвоню своей маме
C G
Мама, почему я хочу умереть?

Куплет:
Am 
Пачка сигарет никогда не закончится
C G
Бросить курить, если честно, не хочется
Am 
Стены так давят меня в этой комнате
C G
Белый потолок, засыпаю в холоде
Am 
Открытые окна, в них дует ветер
C G
Я не закрывал их, я жду тепла
Am 
Мои друзья — это мои сигареты
C G
Мы с ними никогда не расстанемся

Припев:
Am 
Пачка сигарет в моем кармане
C G
Заставляет жить меня этот день
Am 
Я возьму телефон, позвоню своей маме
C G
Мама, почему я хочу умереть?
Am 
Пачка сигарет в моем кармане
C G
Заставляет жить меня этот день
Am 
Я возьму телефон, позвоню своей маме
C G
Мама, почему я хочу умереть?

Куплет 2:
Am 
Дождь за окном, сердце бьется
C G
Эта песня, что в ней поется?
Am 
Может быть новый день не начнется
C G
Может завтра тут выглянет солнце
Am  C G
А-а-а, я так устал бороться
Am  C G
А-а-а, жить это непросто

Припев:
Am 
Пачка сигарет в моем кармане
C G
Заставляет жить меня этот день
Am 
Я возьму телефон, позвоню своей маме
C G
Мама, почему я хочу умереть?
Am 
Пачка сигарет в моем кармане
C G
Заставляет жить меня этот день
Am 
Я возьму телефон, позвоню своей маме
C G
Мама, почему я хочу умереть?
 
 
Свернуть Распечатать

Видео