Local H - Hands On The Bible, аккорды

Прокрутка
Тональность
Шрифт
100
E--------------|
B--------------|
G--------------|
D--2--10-7-----|
A--2--10-7--6--|
E--0--8--5--7--|

E-------------------|
B-------------------|
G-------------------|
D--2--10-7--10-7--5-|
A--2--10-7--10-7--5-|
E--0--8--5--8--5--3-|

And then again the same thing, only drop 3-5-5 and use 7-6. (as seen in first chord chart)

There are some backround riffs aside from the piano, some guitar riffs that i
didn't feel like putting down.

If there's anything in addition, or instead, or if you find a problem with any of
this, drop me a note, i can tab the rest for you, give you a hand, whatever, just
email me and ill get back to you. Maverick0526@ameritech.net
 
 

Видео