Любэ - Главное, что есть ты у меня, аккорды

Прокрутка
Тональность
Шрифт
100
1. (сначала играем тихо, любым перебором)
         Em         Am
Струйкой дым понесло, тишина...
    B7           Em
Запечалилась в небе луна.
     C                Am
Ну и пусть, мне печаль не страшна
   B7             Em
Главное - что есть ты у меня

Solo:
      Em                Am           C
3|-------------------7--------------------------------------|
4|-----7-9-9-97-9--9----9--9-7----7-7-79-7-------7-8-7----9-|
5|7-10--------------------------10-----------7-10------10---|

      Em                Am            B
3|---------------------7---------------------------------|
4|-----7-9-9-97-9-9------9--9-7----7-7-7-9-7-------7-7-9-|
5|7-10--------------------------10------------7-10-------|

2. (играем боем, как и в 1)
         Em         Am
Про себя в тихаря помолюсь,
    B7           Em
Закурю и опять зарекусь.
     C                Am
Жаль, что только сейчас понял я
    B7           Em
Главное - что есть ты у меня

Em Am B

  Припев:
      Am      C        Em      C7
  А ты там, там, там, где смородина растет
  Am           E7     G   G7
  И береза тонким прутиком песок метет
       Am     B7       G       C
  А ты там, где весна, а я здесь, где зима
   Am        B7     Em
  Главное, что есть ты у меня

Solo:
      Em                Am           C
3|-------------------7--------------------------------------|
4|-----7-9-9-97-9--9----9--9-7----7-7-79-7-------7-8-7----9-|
5|7-10--------------------------10-----------7-10------10---|

      Em                Am            B
3|---------------------7---------------------------------|
4|-----7-9-9-97-9-9------9--9-7----7-7-7-9-7-------7-7-9-|
5|7-10--------------------------10------------7-10-------|

3. (опять же боем, те же)
         Em         Am
Фотокарточку нежно храню
    B7           Em
Ты смеешься на ней, я- кричу
     C                Am
Я вернусь, по другому нельзя
    B7           Em
Потому, что есть ты у меня

4. (первая строчка - полушопотом)
         Em         Am
Вновь поход и опять мы идем
    B7           Em
Ловим воздух, как лошади- ртом
     C                Am
Ну и пусть впереди западня
    B7           Em
Главное, что есть ты у меня

Em Am B

  Припев:
      Am      C        Em      C7
  А ты там, там, там, где смородина растет
  Am           E7     G   G7
  И береза тонким прутиком песок метет
       Am     B7       G       C
  А ты там, где весна, а я здесь, где зима
   Am        B7     Em
  Главное, что есть ты у меня

      Am      C        Em      C7
  А ты там, там, там, где смородина растет
  Am           E7     G   G7
  И береза тонким прутиком песок метет
       Am     B7       G       C
  А ты там, где весна, а я здесь, где зима
   Am        B7     Em
  Главное, что есть ты у меня

Solo:
      Em                Am           C
3|-------------------7--------------------------------------|
4|-----7-9-9-97-9--9----9--9-7----7-7-79-7-------7-8-7----9-|
5|7-10--------------------------10-----------7-10------10---|

      Em                Am            B
3|---------------------7---------------------------------|
4|-----7-9-9-97-9-9------9--9-7----7-7-7-9-7-------7-7-9-|
5|7-10--------------------------10------------7-10-------|
 
 

Видео