Любэ - Ты неси меня, река, аккорды

Прокрутка
Тональность
Шрифт
100
|-0--------------1----1-----0---0------3----3----0
|-1--------------1-1-----1--1-1-----1--0-0----0--1
|-2------------0-2---2-2--0-0--0--0--0-0---0-0-0-2
|-2--------0-2---3----------2----------0---------2
|-0--0-2-3-------3----------3----------2---------0
|-0--------------1----------3----------3---------0
 ты неси меня река       за крутые берега
(где поля)

|-0--------------1----1-----0---0------3----3----0
|-1--------------1-1-----1--1-1-----1--0-0----0--1
|-2------------0-2---2-2--0-0--0--0--0-0---0-0-0-2
|-2--------0-2---3----------2----------0---------2
|-0--0-2-3-------3----------3----------2---------0
|-0--------------1----------3----------3---------0
 где поля мои поля (где леса) где леса мои леса
(ты неси)

|-0--------------1----1-----0---0------3----3----0
|-1--------------1-1-----1--1-1-----1--0-0----0--1
|-2------------0-2---2-2--0-0--0--0--0-0---0-0-0-2
|-2--------0-2---3----------2----------0---------2
|-0--0-2-3-------3----------3----------2---------0
|-0--------------1----------3----------3---------0
 ты неси меня река       да в родные мне места

|-0--------------1---1-----0~----------0
|-1--------------1-1----1--0~----------1
|-2------------0-2--2-2--0-1~----------2
|-2------0-2-----3---------2~----------2
|-0-0-2-3---0-0--3---------2~----------0
|-0--------------1---------0~----------0
(где живет)
 где живет моя моя краса     голубые у нее
глаза
 
Припев:
F  C   E  Am
как ночка темная
F  C   E  Am
как речка быстрая
   G Dm E7 Am
как одинокая луна
  F   Dm   E7  Am
на небе ждет меня она

|-0--------------1----1-----0---0------3----3----0
|-1--------------1-1-----1--1-1-----1--0-0----0--1
|-2------------0-2---2-2--0-0--0--0--0-0---0-0-0-2
|-2--------0-2---3----------2----------0---------2
|-0--0-2-3-------3----------3----------2---------0
|-0--------------1----------3----------3---------0
За туманом огонёк, как же он ещё далёк,

|-0--------------1----1-----0---0------3----3----0
|-1--------------1-1-----1--1-1-----1--0-0----0--1
|-2------------0-2---2-2--0-0--0--0--0-0---0-0-0-2
|-2--------0-2---3----------2----------0---------2
|-0--0-2-3-------3----------3----------2---------0
|-0--------------1----------3----------3---------0
Ты мне, ветер, помоги, милой весточку шепни.

|-0--------------1----1-----0---0------3----3----0
|-1--------------1-1-----1--1-1-----1--0-0----0--1
|-2------------0-2---2-2--0-0--0--0--0-0---0-0-0-2
|-2--------0-2---3----------2----------0---------2
|-0--0-2-3-------3----------3----------2---------0
|-0--------------1----------3----------3---------0
Знаю, ждёт меня моя краса, проглядела в ночь глаза,

|-0--------------1----1-----0---0------3----3----0
|-1--------------1-1-----1--1-1-----1--0-0----0--1
|-2------------0-2---2-2--0-0--0--0--0-0---0-0-0-2
|-2--------0-2---3----------2----------0---------2
|-0--0-2-3-------3----------3----------2---------0
|-0--------------1----------3----------3---------0
Как ночка тёмная, как речка быстрая,

|-0--------------1---1-----0~----------0
|-1--------------1-1----1--0~----------1
|-2------------0-2--2-2--0-1~----------2
|-2------0-2-----3---------2~----------2
|-0-0-2-3---0-0--3---------2~----------0
|-0--------------1---------0~----------0
Как одинокая луна на небе, ждёт меня она.

Далее проигрыш: x2
|-0-0-3-3-1-0--0--0-0-------1--------(0)-0  
|-1-----0----3-1-1--0-3-1-0-1--1---3-----1   
|-0-----0------2----0-------2-2---4------0
|-2-----0------2----2-------3------------2
|-3-----2------0----2-------3------------3
|-3-----3------0----0-------1------------3   

C  G     Am   Em      F  G
ты неси меня река за крутые берега x2 

Припев:
F  C   E  Am
как ночка темная
F  C   E  Am
как речка быстрая
   G Dm E7 Am
как одинокая луна
  F   Dm   E7  Am
на небе ждет меня она
 
 
Свернуть Распечатать

Видео