Любэ - Мент, аккорды

Прокрутка
Тональность
Шрифт
100
Тональность: Bm
Темп: ~80

          Bm       Em F# Bm G        Em F# Bm
Проигрыш: 3|--4-4-4---3--7-4---4-4-4--3--4--|

Басовый проигрыш: 
4|------2-
5|--2-5---

   Em        F#    Bm
У мента и жены-то нет,
    Em    A    D   B7
Ну какая еще жена,
     Em                Bm   G
У мента - если от роду 20 лет,
     Em       F#      Bm
И кругом-то вообще война.

Он и вырос на той войне,
И пришла ему масть не та,
Ой не та, и достала его в родной стране
Пуля дура.

А он матери так писал:
"Ты же знаешь про все сама,
Мама, сколько раз ты меня берегла,
До свидания мама."

Модуляция в тональность C#m

Басовый проигрыш: 
4|------4-
5|--4-7---


F#m         G#   C#m
И упал он заместо нас,
F#m    B     E      C#7
Было мальчику 20 лет...
F#m                   C#m     A
Эх, судьба не сложилась на этот раз -
F#m         G#        C#m
Он промедлил, а снайпер нет.

Соляк - ритм:
F#m  G#  C#m  A
F#m  G#  C#m 

F#m  G#  C#m  A     |
F#m  B   E    C#m7  | Здесь идет речтатив (см. ниже)
F#m  G#  C#m  A     |
F#m  G#  C#m        |

Соляк - гитара:
Вертикальные черты отделяют фразы, длящиеся 2 такта
Перва фраза начинается "затакт"
..     F#m
2|---------5----|-------------|----------5----|-------------|----------5----|-------------
3|-6-6-6-5---6--|--6-6-6-5-6--|--6-6-6-5---6--|--6-6-6-4----|--6-6-6-5---6--|--6-6-6-5-6--
4|--------------|-------------|---------------|----------6--|---------------|-------------

Соляк - труба на фоне
Труба как бы вторит гитаре (приходится на вторую долю)
2|-------------------5-5-5-------|-------------------------------
3|-6-6-6-6--5-5-5-5--------8-6---|--6-6-6-6--5-5-5-5--6-6-6-8-9--
4|-------------------------------|-------------------------------


2|-------------------5-5-5-------|---------------------7-9-------
3|-6-6-6-6--5-5-5-5--------8-6---|--6-6-6-6------6-8-9-----------
4|-------------------------------|-----------9-9-----------------


2|-------------------5-5-5-------|-------------------------------
3|-6-6-6-6--5-5-5-5--------8-6---|--6-6-6-6--5-5-5-5--6----------
4|-------------------------------|-------------------------------

Речитатив:
Был пацан и нет пацана, -
а жить бы ему до ста...
И шапку долой и рюмки до дна -
Когда хоронят мента!

F#m              G#      C#m
Встать, когда хоронят бойца!
 
 
Свернуть Распечатать

Видео