Любэ - Мент, аккорды

Прокрутка
Тональность
Шрифт
100
Проигрыш: 
Bm       Em F# Bm G        Em F# Bm
3|--4-4-4---3--7-4---4-4-4--3--4--|

Басовый проигрыш: 
4|------2-
5|--2-5---

   Em        F#    Bm
У мента и жены-то нет,
    Em    A  D B7
Ну какая еще жена,
     Em                Bm   G
У мента - если от роду 20 лет,
     Em       F#      Bm
И кругом-то вообще война.

   Em        F#    Bm
Он и вырос на той войне,
    Em    A  D B7
И пришла ему масть не та,
     Em                Bm   G
Ой не та, и достала его в родной стране
   Em  F# Bm
Пуля дура.

   Em        F#    Bm
А он матери так писал:
    Em    A  D B7
"Ты же знаешь про все сама,
     Em                Bm   G
Мама, сколько раз ты меня берегла,
     Em   F#  Bm
До свидания мама."

(Модуляция в тональность C#m)

Басовый проигрыш: 
4|------4-
5|--4-7---

F#m         G#   C#m
И упал он заместо нас,
F#m    B     E      C#7
Было мальчику 20 лет...
F#m                   C#m     A
Эх, судьба не сложилась на этот раз -
F#m         G#        C#m
Он промедлил, а снайпер нет.

Соло (ритм): F#m G# C#m A
      F#m G# C#m 

Соло-гитара:
..     F#m
2|---------5----|-------------|----------5----|-------------|----------5----|-------------
3|-6-6-6-5---6--|--6-6-6-5-6--|--6-6-6-5---6--|--6-6-6-4----|--6-6-6-5---6--|--6-6-6-5-6--
4|--------------|-------------|---------------|----------6--|---------------|-------------

Соло - труба на фоне:
2|-------------------5-5-5-----|------------------------------
3|-6-6-6-6--5-5-5-5--------8-6-|--6-6-6-6--5-5-5-5--6-6-6-8-9-
4|-----------------------------|------------------------------

2|-------------------5-5-5-----|---------------------7-9-
3|-6-6-6-6--5-5-5-5--------8-6-|--6-6-6-6------6-8-9-----
4|-----------------------------|-----------9-9-----------

2|-------------------5-5-5-----|----------------------
3|-6-6-6-6--5-5-5-5--------8-6-|--6-6-6-6--5-5-5-5--6-
4|-----------------------------|----------------------

Речитатив:
F#m  G#  C#m  A
Был пацан и нет пацана, -
F#m  B   E    C#m7
а жить бы ему до ста...
F#m  G#  C#m  A  
И шапку долой и рюмки до дна -
F#m  G#  C#m  
Когда хоронят мента!

F#m              G#      C#m
Встать, когда хоронят бойца!

Комментарий автора:

Тональность: Bm
Темп: ~80
 
 
Свернуть Распечатать

Видео