Любэ - Самоволочка, аккорды

Прокрутка
Тональность
Шрифт
100
Intro: 
e|5----------------------------------
B|--6--------------------------------
G|----7---44-4-66-6-7------44-4-66-6-
D|------7------------7-777-----------
A|-----------------------------------
E|-----------------------------------
 
 Dm                Gm
 На сапогах играет солнышко,
 A             Dm
 Сигареточка полет,
                  Gm
 А за забором самоволочка
 C7               F
 Кружит голову и ждет.
 D7               Gm
 А ты жди меня, хорошая-я-я,
 C7               F         
 Я приду, ты не балуй.      
 Dm               Gm        
 Будет лентой пулеметною    
  A              Cm (Dm)    
 Красоваться поцелуй.       
 D7               Gm
 А ты жди меня, хорошая-я-я,
 C7               F         
 Я приду, ты не балуй.      
 Dm               Gm        
 Будет лентой пулеметною    
  A              Cm (Dm)    
 Красоваться поцелуй.       
 
e|5----------------------------------
B|--6--------------------------------
G|----7---44-4-66-6-7------44-4-66-6-
D|------7------------7-777-----------
A|-----------------------------------
E|-----------------------------------
 
Припев:
e|-5----------
B|----6-------
G|-------7----
D|----------7-  G
   Са-мо-во-ло-чка -
      A          Dm
 Хмельна как самогоночка,
      G    A      Dm
 Пролетела как картоночка,
          G     A   Dm
 А под шумливый вечерок.
e|-5----------
B|----6-------
G|-------7----
D|----------7-  G
 Са-мо-во-ло-чка -
      A          Dm
 В помаде гимнастерочка,
      G    A      Dm
 А на прощанье, чернобровочка,
          G     A   Dm
 Хоть подержись за ремешок.
 
 Dm                Gm
 Эх, дела мои сердешные,
 A             Dm
 Кровь бушует как волна,
                  Gm
 А на уме все темы вечные
 C7               F
 Да капитанова жена.
 D7               Gm
 Мне копать траншею велено-на-на,
 C7              F  
 Я копаю словно раб.
 Dm               Gm
 Те за Сталина, за Ельцина,
  A              Cm (Dm) 
 Я - за всех российских баб.
 
Припев:
e|-5----------
B|----6-------
G|-------7----
D|----------7-  G
   Са-мо-во-ло-чка -
      A          Dm
 Хмельна как самогоночка,
      G    A      Dm
 Пролетела как картоночка,
          G     A   Dm
 А под шумливый вечерок.
e|-5----------
B|----6-------
G|-------7----
D|----------7-  G
 Са-мо-во-ло-чка -
      A          Dm
 В помаде гимнастерочка,
      G    A      Dm
 А на прощанье, чернобровочка,
          G     A   Dm
 Хоть подержись за ремешок.
 
 Dm                Gm
 Самая такая, жизнь ты шебутная,
 A             Dm
 Самая такая, подруга ты моя,
               Gm
 Самая такая ????,
 C7            F
 Самоволочка моя.
 
 

Видео