Любэ - Главное, что есть ты у меня, аккорды

Прокрутка
Тональность
Шрифт
100
 1. (сначала играем тихо, любым перебором)
              Em             Am
 Струйкой  дым понесло, тишина... 
       D                G
 Запечалилась в небе луна.
         C                       Am 
 Ну и пусть, мне печаль не страшна
     B                     Em
 Главное- что есть ты у меня
 
Solo:
         Em                        Am                C      B
3|---------------------7-----------------------------------------
4|-----7-9-9-9-7-9-9-9---9--9-7----7-7-7-9-7-------7-8-7----7--9-
5|7-10--------------------------10------------7-10-------10------
 
           Em                        Am                B
3|---------------------7---------------------------------
4|-----7-9-9-9-7-9-9-9---9--9-7----7-7-7-9-7-------7-7-9-
5|7-10--------------------------10------------7-10-------
 
 2. (боем)
         Em             Am
 Про себя втихаря помолюсь,
       D               G
 Закурю и опять зарекусь.
         C                    Am 
 Жаль, что только сейчас понял я
     B                    Em
 Главное- что есть ты у меня

Em Am B
 
Припев: 
    C        Am         C            Em    C7   
    А ты там, там, там, где смородина растет
    C                      D         G  G7
    И береза тонким прутиком песок метет
           Am        D           G       C 
    А ты там, где весна, а я здесь, где зима
                      B      Em 
    Главное, что есть ты у меня
 
Solo:
         Em                        Am                C      B
3|---------------------7-----------------------------------------
4|-----7-9-9-9-7-9-9-9---9--9-7----7-7-7-9-7-------7-8-7----7--9-
5|7-10--------------------------10------------7-10-------10------
 
           Em                        Am                B
3|---------------------7---------------------------------
4|-----7-9-9-9-7-9-9-9---9--9-7----7-7-7-9-7-------7-7-9-
5|7-10--------------------------10------------7-10-------
 
 3. (боем) 
        Em             Am
 Фотокарточку нежно храню
       D                G
 Ты смеешься на ней, я - кричу
         C                Am 
 Я вернусь, по другому нельзя
     B                    Em
 Потому, что есть ты у меня
 
 4. (первая строчка- полушёпотом)
          Em             Am
 Вновь поход и опять мы идем
       D                G
 Ловим воздух, как лошади - ртом
         C               Am 
 Ну и пусть впереди западня
     B                    Em
 Главное, что есть ты у меня
 
Припев: x2
    C        Am         C            Em    C7   
    А ты там, там, там, где смородина растет
    C                      D         G  G7
    И береза тонким прутиком песок метет
           Am        D           G       C 
    А ты там, где весна, а я здесь, где зима
                      B      Em 
    Главное, что есть ты у меня

Solo:
         Em                        Am                C      B
3|---------------------7-----------------------------------------
4|-----7-9-9-9-7-9-9-9---9--9-7----7-7-7-9-7-------7-8-7----7--9-
5|7-10--------------------------10------------7-10-------10------
 
           Em                        Am                B
3|---------------------7---------------------------------
4|-----7-9-9-9-7-9-9-9---9--9-7----7-7-7-9-7-------7-7-9-
5|7-10--------------------------10------------7-10-------
 
 
Свернуть Распечатать

Видео