Любэ - Мент, аккорды

Прокрутка
Тональность
Шрифт
100
Тема:
       Em   F#  Bm  G 
1)---------------------
2)-0-0-0--------3---0--
3)----------3----------

  Em  F#  Bm 
1)----------------
2)-0-0-0--------0-
3)----------3-----

А в последнем куплете играют вот так:
 Em   F#  Bm  G 
1)---------------------
2)-0-0-0--------3---0--
3)----------3----------

1)----------------
2)-0-0-0----------
3)----------0-----
4)-------------2--

 Em    F#     Bm 
У мента и жены-то нет.
 Em    A7   D  
Ну какая ещё жена,
     Em 
у мента,
              Bm        G 
Если от роду двадцать лет,
      Em        F#      Bm 
И  кругом-то вообще - война.

Он и вырос на той войне,
И пришла ему масть не та.
Ой, не та!
И достала его в родной стране
Пуля-дура.

А он матери так писал:
"Ты же знаешь про все сама,
Мама,
Сколько раз ты меня берегла...
До свидания, мама!"

И упал он заместо нас.
Было мальчику двадцать лет.
Эх, судьба!
Не сложилась на этот раз
Он промедлил,
А снайпер - нет.

Был пацан - и нет пацана
А жить бы ему до ста
Шапки - долой
И рюмку - до дна,
Когда хоронят мента.

Встать, когда хоронят бойца!
 
 

Видео