Любэ - Берёзы, аккорды

Прокрутка
Тональность
Шрифт
100
вступление:   
        Am(h)              Am(h)              Am(h)
1|-----------------------------------------------------------------------------|
2|---0-1-3-1-h3-0-------0-1-3-1-h3-0-------0-1-3-1-h3-0------------------------|
3|-2------------------2------------------2-------------------------------------|
4|-----------------------------------------------------------------------------|
5|-0------------------0------------------0-------------------------------------|
6|-----------------------------------------------------------------------------| 
 
куплет: 
         Am            F(+5)           G(+3)             C
1|-----------0-----------5---------------3---------------0---------------------|
2|-----0-1-3-----------6---6-----------3---3-----------1---1-------------------|
3|---2---------------5-------5-------4-------4-------0-------0-----------------|
4|-----------------------------------------------------------------------------|
5|-0---------------8-------------------------------3---------------------------|
6|---------------------------------3-------------------------------------------|
         Am            F(+5)           G(+3)             C              A7
1|-----------0-----------5---------------3---------------0---------------0-----|
2|-----0-1-3-----------6---6-----------3---3-----------1---1-----------2---2---|
3|---2---------------5-------5-------4-------4-------0-------0-------0-------0-|
4|-----------------------------------------------------------------------------|
5|-0---------------8-------------------------------3---------------0-----------|
6|---------------------------------3-------------------------------------------|
         Dm              E               F               Dm
1|--------1---------------0---------------1---------------1--------------------|
2|------3---3-----------0---0-----------1---1-----------3---3------------------|
3|----2-------2-------1-------1-------2-------2-------2-------2----------------|
4|--0-----------------------------------------------0--------------------------|
5|------------------2----------------------------------------------------------|
6|----------------------------------1------------------------------------------|
         Am               E                Am(h)  
1|--------0---------------0----------------------------------------------------|
2|------1---1-----------0---0-----------0-1-3-1h3-0----------------------------|
3|----2-------2-------1-------1-------2----------------------------------------|
4|-----------------------------------------------------------------------------|
5|--0----------------2--------------0------------------------------------------|
6|-----------------------------------------------------------------------------|
припев:
         A7           Dm        G         C         F
1|--0-----0---------1---------3---------0---------1----------------------------|
2|--------2-------------3---------0---------2---------1------------------------|
3|------0-----0-------2---------0---------0---------2--------------------------|
4|----2-----2-------0----------------------------------------------------------|
5|--0-----------------------------------3--------------------------------------|
6|----------------------------3-------------------1----------------------------|
     Dm         E         Am
1|--1---------0----------------------------------------------------------------|
2|------3---------0---------1--------------------------------------------------|
3|----2---------1---------2----------------------------------------------------|
4|--0--------------------------------------------------------------------------|
5|----------------------0------------------------------------------------------|
6|------------0----------------------------------------------------------------|
      A7        Dm        G         C         F
1|------------1---------3---------0---------1----------------------------------|
2|------2---------3---------0---------2---------1------------------------------|
3|----0---------2---------0---------0---------2--------------------------------|
4|------------0----------------------------------------------------------------|
5|--0-----------------------------3--------------------------------------------|
6|----------------------3------------------1-----------------------------------|
     Dm         E              Am(h)
1|--1---------0----------------------------------------------------------------|
2|------3---------0---------0-1-3-1-h3-0---------------------------------------|
3|----2---------1---------2----------------------------------------------------|
4|--0--------------------------------------------------------------------------|
5|----------------------0------------------------------------------------------|
6|------------0----------------------------------------------------------------|

Am           F      G      C
Отчего так в России березы шумят
Am          F        G   C        A7    
Отчего белоствольные все понимают?
Dm       E                       F     Dm
У дорог, прислонившись, по ветру стоят
  Am         E        Am
И листву так печально кидают.

Am         F        G          C
Я пойду по дороге - простору я рад.
Am              F            G     C   A7          
Может, это лишь все, что я в жизни узнаю,
Dm         E                F     Dm    
Отчего так печальные листья летят
    Am      E    Am(h)      
Под рубахою душу лаская.

Припев:
     A7   Dm     G     C      F
     А на сердце опять горячо-горячо
     Dm      E       Am   
     И опять и опять без ответа,
    A7 Dm         G       C       F
     А листочек с березки упал на плечо,
           Dm E         Am(h)
     Он как я оторвался от веток.

проигрыш: Am(h) 6 раз

Am         F        G         C
Посидим на дорожку, родная, с тобой,
Am               F       G            C     A7    
Ты пойми - я вернусь, не печалься, не стоит.
  Dm      E                  F     Dm    
И старуха махнет на прощанье рукой
     Am   E       Am(h)    
И за мною калитку закроет.


Am            F     G      C
Отчего так в России березы шумят
Am         F      G        C      A7          
Отчего хорошо так гармошка играет?
       Dm        E               F        Dm    
Пальцы ветром по кнопочкам в раз пролетят,
  Am         E   Am(h)     
А последняя, эх, западает.

Припев X2:
     A7   Dm     G     C      F
     А на сердце опять горячо-горячо
     Dm      E       Am
     И опять и опять без ответа,
    A7 Dm         G       C       F
     А листочек с березки упал на плечо,
           Dm E         Am(h)
     Он как я оторвался от веток.

описание:
Am(h) => h - Легато
аккорд-            F(+5)
лады- 5         6         7         8 
1|----1----|---------|---------|---------|
2|---------|----2----|---------|---------|
3|----1----|---------|---------|---------|
4|---------|---------|----3----|---------|
5|---------|---------|---------|----4----|
6|----1----|---------|---------|---------|
            G(+3)
лады- 3         4         5     
1|----1----|---------|---------|
2|----1----|---------|---------|
3|---------|----2----|---------|
4|---------|---------|----4----|
5|---------|---------|----3----|
6|----1----|---------|---------|
пальцы:
1-указательный
2-средний
3-безымянный
4-мизинец

Комментарий автора:

каподастр на 2 ладу
 
 
Свернуть Распечатать

Видео