Любэ - Хулиган, аккорды

Прокрутка
Тональность
Шрифт
100
Вступление:
Проигрыш 1:
   D       G    Em     G D       G     B7   Em  D     
E|-0-2-3-5-7-7-5-7-7-5-7-0-2-3-5-7-5-3-5-3-2-0--0-2-3-
B|----------------------------------------------------
G|----------------------------------------------------
D|----------------------------------------------------
A|----------------------------------------------------
E|----------------------------------------------------

  G    Em     G D       G     B7    
E|-5-7-7-5-7-7-5-7-0-2-3-5-7-5-3-5-3-2-0-
B|---------------------------------------
G|---------------------------------------
D|---------------------------------------
A|---------------------------------------
E|---------------------------------------

Проигрыш 2: Em D G G B Em Em D G G B 

Em         D    G
У меня немного денег
Am         B    Em
И никто меня не любит
Em          D     G
Я безбожник и бездельник
     C      B     Em 
Хулиган, каких не будет

Припев:
D                  G 
Он безбожник и бездельник,
Am          B     Em
Хулиган, каких не будет

Проигрыш 2: Em D G G B Em Em D G G B

Em       D     G
Постовые улиц центра
Am             B      Em
Мне вослед глядят построже,
Em             D    G
Жизнь моя не стоит цента,
C       B    Em
Оттого она дороже.

Припев 2:
D                   G
Жизнь его не стоит цента,
    Am  B      Em
Ничего она не стоит!

Проигрыш 2: Em D G G B Em Em D G G B

Em              D       G
Для друзей трактирной стойки
Am             B     Em
Дверь души срываю с петель!
Em        D   G
И ночные судомойки
C          B           Em 
Проявляют, э-эх! добродетель!

Проигрыш 1 (в тональности Фа-минор):
  D#      G#    Fm  G# D#     G#     C    Fm  D#      G#    Fm  G# D#     G#     C    Fm  
E|-1-3-4-6-8-8-6-8-6-8-1-3-4-6-8-6-4-6-4-3-1---1-3-4-6-8-8-6-8-6-8-1-3-4-6-8-6-4-6-4-3-1-
B|---------------------------------------------------------------------------------------
G|---------------------------------------------------------------------------------------
D|---------------------------------------------------------------------------------------
A|---------------------------------------------------------------------------------------
E|---------------------------------------------------------------------------------------

Fm            D#     G#
Я совсем, совсем пропащий
Bm           C    Fm
Под навесом небосвода...
Fm       D#    G#
Не умею жить иначе -
    C#   C    Fm
Такова моя порода...
Fm       D#    G#
Не умею жить иначе -
    C#   C    Fm
Такова моя порода!

Припев 3:
D#               G#
Мы научим жить иначе,
         Bm     C    Fm
Чтоб на пользу для народа! 

D#               G#
Мы научим жить иначе,
         Bm     C    Fm
Чтоб на пользу для народа! 

Проигрыш 2 (в тональности Фа-минор):
Fm D# G#            G#   C   Fm
      Эх, хулиган, хулиган, эх!
Fm D# G#            G#   C   Fm
      Эх, хулиган, хулиган, эх!
Fm D# G#            G#   C   Fm
      Эх, хулиган, хулиган, эх!
Fm D# G#            G#   C   Fm
      Эх, хулиган, хулиган, эх!

Проигрыш 1 (в тональности Фа-минор):
  D#      G#    Fm  G# D#     G#     C    Fm  D#      G#    Fm  G# D#     G#     C    Fm  
E|-1-3-4-6-8-8-6-8-6-8-1-3-4-6-8-6-4-6-4-3-1---1-3-4-6-8-8-6-8-6-8-1-3-4-6-8-6-4-6-4-3-1-
B|---------------------------------------------------------------------------------------
G|---------------------------------------------------------------------------------------
D|---------------------------------------------------------------------------------------
A|---------------------------------------------------------------------------------------
E|---------------------------------------------------------------------------------------
 
 

Видео