Любэ - Младшая сестренка, аккорды

Прокрутка
Тональность
Шрифт
100
  Em        Asus4                 Em
1|----------------------------------------------
2|--------0-------0-----------------------------
3|--------0----2-----2--------------------------
4|-----2-------2------------------------2-------
5|------------------------2--0------------------
6|--0---------------------------3----0----------

Перебор:
   Em
1|-----------------------------------------------
2|--0--------0------0-------0-------0------0-----
3|-----0--------0------0-------0-------0------0--
4|--------2--------2--------------2-------2------
5|-----------------------------------------------
6|--0-----------------------0--------------------

    C
1|-----------------------------------------------
2|--1--------1------1------1-------1------1------
3|-----0--------0------0------0-------0------0---
4|--------2--------2-------------2-------2-------
5|--3----------------------3---------------------
6|-----------------------------------------------

   Am                   B7                     Em       fl.
1|------------------------2------2-----2----------------12---
2|--1-------1------1---------0------0-----0-----0------------
3|-----2-------2------2---------2------2--------0------------
4|--------2-------2-----------------------------2------------
5|--0---------------------2----------------------------------
6|----------------------------------------------0------------
                                             /конец.

Далее играется тоже самое со слов "припев" до слова "конец",
 вступает вторая гитара:
1|--0--0--7--5^7^5^0--3-----------------
                        /основное соло всей песни, под припев тоже оно.
1|--0--0--7--5^7^5^0--3-----------------
                                 fl.
1|--0--0--7--5^7^5^0--3----0-----12-----
                                     /конец вступления.

Гитара №1
   Em
1|-----------------------------------------------
2|--0--------0------0-------0-------0------0-----
3|-----0--------0------0-------0-------0------0--
4|--------2--------2--------------2-------2------
5|-----------------------------------------------
6|--0-----------------------0--------------------

Гитара №2
1|--0--0--7--5^7^5^0--3--------------
   Ты все еще веришь в любовь

Гитара №1
    C
1|-----------------------------------------------
2|--1--------1------1------1-------1------1------
3|-----0--------0------0------0-------0------0---
4|--------2--------2-------------2-------2-------
5|--3----------------------3---------------------
6|-----------------------------------------------

Гитара №2
1|--0--0--7--10--8--5----------
     Фильмами добрыми бредишь

Гитара №1
   Am                   B7
1|------------------------2------2-----2-------
2|--1-------1------1---------0------0-----0----
3|-----2-------2------2---------2------2-------
4|--------2-------2----------------------------
5|--0---------------------2--------------------
6|---------------------------------------------

Гитара №2
1|-0--5--3-----5--7--8--7---5--------------------
2|----------5------------------------------------
    И все еще веришь в любовь

Гитара №1
Em  C   Am   B7

Гитара №2
                                fl.
1|--5--3---2--------------------12---------------
2|------------5----5--4--------------------------
   Веришь..

Гитара №1
   Em
1|-----------------------------------------------
2|--0--------0------0-------0-------0------0-----
3|-----0--------0------0-------0-------0------0--
4|--------2--------2--------------2-------2------
5|-----------------------------------------------
6|--0-----------------------0--------------------

Гитара №2
1|--0--0--7--5^7^5^0--3--------
      Из дома уходишь тайком

Гитара №1
    C
1|-----------------------------------------------
2|--1--------1------1------1-------1------1------
3|-----0--------0------0------0-------0------0---
4|--------2--------2-------------2-------2-------
5|--3----------------------3---------------------
6|-----------------------------------------------

Гитара №2
1|--0--0--7--10--8--5----------------------------
   Так же без спроса взрослеешь

Гитара №1
   Am                   B7
1|------------------------2------2-----2-------
2|--1-------1------1---------0------0-----0----
3|-----2-------2------2---------2------2-------
4|--------2-------2----------------------------
5|--0---------------------2--------------------
6|---------------------------------------------

Гитара №2
1|-0--5--3-----5--7--8--7---5--------------------
2|----------5------------------------------------
   И все еще веришь в любовь

Гитара №1
Em  C  Am  B7

Гитара №2
1|--0--0--7--5^7^5^0--3-------0--0--7--5^7^5^0--3--------  х2
   Веришь..

Припев:
 Em       C  Am  B7
Младшая моя  сестренка,
Em          C      Am     B7
Что же ничего не скажешь мне?
 Em        C Am   B7
Младшая моя сестренка,
 Em        C  Am B7
Жаль тебя мне..
 Em
Какая бесстрашная ты -
 C
Кормишь дворнягу с ладошки..
 Am              B7
Тебя любят травы, цветы,
 Em  C Am B7
Кошки

Гитара №1
   Em
1|-----------------------------------------------
2|--0--------0------0-------0-------0------0-----
3|-----0--------0------0-------0-------0------0--
4|--------2--------2--------------2-------2------
5|-----------------------------------------------
6|--0-----------------------0--------------------

Гитара №2
1|--0--0--7--5^7^5^0--3--------------
   И все же ты, все же дитя,

Гитара №1
    C
1|-----------------------------------------------
2|--1--------1------1------1-------1------1------
3|-----0--------0------0------0-------0------0---
4|--------2--------2-------------2-------2-------
5|--3----------------------3---------------------
6|-----------------------------------------------

Гитара №2
1|--0--0--7--10--8--5----------
     Фильмами добрыми бредишь

Гитара №1
   Am                   B7
1|------------------------2------2-----2-------
2|--1-------1------1---------0------0-----0----
3|-----2-------2------2---------2------2-------
4|--------2-------2----------------------------
5|--0---------------------2--------------------
6|---------------------------------------------

Гитара №2
1|-0--5--3-----5--7--8--7---5--------------------
2|----------5------------------------------------
    И веришь в любовь не шутя,

Гитара №1
Em  C   Am   B7

Гитара №2
                                fl.
1|--5--3---2--------------------12---------------
2|------------5----5--4--------------------------
   Веришь..

Припев:
 Em       C  Am  B7
Младшая моя  сестренка,
Em          C      Am     B7
Что же ничего не скажешь мне?
 Em        C Am   B7
Младшая моя сестренка,
 Em        C  Am B7
Жаль тебя мне..
 Em
Какая бесстрашная ты -
 C
Кормишь дворнягу с ладошки..
 Am              B7
Тебя любят травы, цветы,
 Em  C Am B7
Кошки
 
 
Свернуть Распечатать

Видео