Любэ - Солдат, аккорды

Прокрутка
Тональность
Шрифт
100
Проигрыш:
1|----------
2|----------
3|---------0-
4|------0-2--
5|-0-2-3-----
6|-----------

Вступление:
1|-5-5-------------------
2|-----8-5---------------
3|---------5-7-7-5-2-0-2-
4------------------------
5------------------------
6------------------------

|Am
Третьи сутки в пути, ветер, камни, дожди,
|Dm                  |Am
Все вперед и вперед, рота прет наша, прет
|Am
Третьи сутки в пути, слышь, браток, не грусти
|Dm                       |Am
Ведь приказ есть приказ, знает каждый из нас.

Проигрыш(начало)|F  |Em           |Am
Напишите письмецо, нет его дороже для бойцов,
Проигрыш(начало)|F  |E               |Am
Напишите пару слов вы девчата для своих пацанов.

Припев (2 раза):
|Am
И на рассвете вперед уходит рота солдат

Уходит, чтоб победить и чтобы не умирать
|Dm
Ты дай им там прикурить, товарищ старший сержант
|F                |E                   |Am
Я верю в душу твою солдат, солдат, солдат

Третьи сутки в пути, ветер, камни, дожди
На рассвете нам в бой, день начнется стрельбой.
Третьи сутки в пути, кто бы знал что нас ждет,
Третьи сутки в пути и рассвет настает.

Напишите письмецо как живет там наш родимый дом?
Из далека-далека принесут его мне облака.

Припев (2 раза) и потом...

1|-7-7----------------
2|----10-7------------
3|--------7-9-9-7-4-4-
4------7--------------
5---------------------
6---------------------

|Bm
Падала земля, с неба падала земля                          
Разрывая крик в небе "Падла ты, война!"
|Em
Плавилась броня, захлебнулся автомат
|F#
Заглянул в глаза ты смерти, гвардии сержант!
 
 
Свернуть Распечатать

Видео