Любэ - За тебя, аккорды

Прокрутка
Тональность
Шрифт
100
Вступление: 
1:|------------------------------------------------- 
2:|------------------------------------------------- 
3:|------------------------------------------------- 
4:|-5-4-2-----2-4-5-----5-4-4-2---0----------------- 
5:|---------------------3-2-----2-3-5-----5-2-3----- 
6:|------------------------------------------------- 

1:|------------------- 
2:|-------------------  
3:|-------------------  
4:|-------------------  
5:|3-0-2-----3-2-0---- 
6:|------0------------

        Em 
Помнишь детские годы, помнишь бился я в кровь? 
     G 
За тебя, за тебя, за тебя. 
     Am                                     Em 
Было маме заботы: то коленки, то бровь. За тебя. 

        Em 
А потом были страны, где дорог - полотно. 
     G 
За тебя, за тебя, за тебя. 
     Am                                   Em 
И стреляли душманы, и спасало одно: За тебя. 

Припев:
     Am            D            G          Em 
    Родинка, что зернышко, - на плече видна. 
     Am         D         G            Em 
    За тебя до донышка, выпью я до дна. 
          Am D G       Em 
    За тебя.... За тебя... 
          Am D Em 
    За тебя. 

Проигрыш = Вступление:
1:|------------------------------------------------- 
2:|------------------------------------------------- 
3:|------------------------------------------------- 
4:|-5-4-2-----2-4-5-----5-4-4-2---0----------------- 
5:|---------------------3-2-----2-3-5-----5-2-3----- 
6:|------------------------------------------------- 

1:|------------------- 
2:|-------------------  
3:|-------------------  
4:|-------------------  
5:|3-0-2-----3-2-0---- 
6:|------0------------

        Em 
Спето песен немало на бульварах ночных. 
     G 
За тебя, за тебя, за тебя. 
     Am                                     Em 
Удивлялись ребята: я не пел для других. За тебя. 

        Em 
Все закаты, восходы я пройду вновь и вновь. 
     G 
За тебя, за тебя, за тебя. 
     Am                                     Em 
Помнишь детские годы? За тебя бился в кровь. За тебя. 
 
 
Свернуть Распечатать

Видео