Lumen - Гореть, аккорды

Прокрутка
Тональность
Шрифт
100
Вступление: 

e|-----------------|-----------------|-----------------|-----------------||-----------------|
B|-----------------|-----------------|-----------------|-----------------||-----------------|
G|----12-----9-----|----10-----9-----|------9-------12-|-----9-----10----||-----9-----9-----|
D|--10-----10------|--10-----10------|---10--10---10---|---10----10------||---10----10--10--|
A|-0-----0---------|-0-----0---------|-0--------10-----|-10----10--------||-10----10--------|
E|-----------------|-----------------|-----------------|-----------------||-----------------|

e|-----------------|-----------------|-----------------|-----------------||-----------------|
B|-----------------|-----------------|-----------------|-----------------||-----------------|
G|----12-----9-----|----10-----9-----|------9--------0-|-----0-----------||------0-----0----|
D|--10-----10------|--10-----10------|---10---10---7---|---7-----7-------||----7-----7----7-|
A|-8-----8---------|-8-----8---------|-8---------5-----|-5-----5---------||--5-----5----5---|
E|-----------------|-----------------|-----------------|-----------------||-----------------|

1 Куплет:

e|-----------------|-----------------|-----------------|-----------------||-----------------|
B|-----------------|-----------------|-----------------|-----------------||-----------------|
G|------0-----0----|------0-----0----|------0-------0--|----------0-----0||-----------------|
D|---10----10----10|---10----10----10|----0-------0----|---0----0-----0--||----0------------|
A|-0-----0------0--|-0-----0------0--|-10------10------|-10--10----10----||--10-------------|
E|-----------------|-----------------|-----------------|-----------------||-----------------|
              Зачем        кричать,              когда     никто  не    слышит
 
e|-----------------|-----------------|-----------------|-----------------||-----------------|
B|-----------------|-----------------|-----------------|-----------------||-----------------|
G|----0------0-----|----0------0-----|------0-----0----|------0-----0----||-----------------|
D|--10-----10---10-|--10-----10---10-|----7-----7----7-|----7-----7----7-||-----------------|
A|-8-----8-----8---|-8-----8-----8---|--5-----5----5---|--5-----5----5---||-----------------|
E|-----------------|-----------------|-----------------|-----------------||-----------------|
                О     чём      мы       говорим. 

e|-----------------|-----------------|-----------------|-----------------||-----------------|
B|-----------------|-----------------|-----------------|-----------------||-----------------|
G|------0-----0----|------0-----0----|------0-------0--|----------0-----0||-----------------|
D|---10----10----10|---10----10----10|----0-------0----|---0----0-----0--||----0------------|
A|-0-----0------0--|-0-----0------0--|-10------10------|-10--10----10----||--10-------------|
E|-----------------|-----------------|-----------------|-----------------||-----------------|               
          Мне        кажется,            что     мы       давно        не живы, 


e|-----------------|-----------------|-----------------|-----------------||-----------------|
B|-----------------|-----------------|-----------------|-----------------||-----------------|
G|----0------0-----|----0------0-----|------0-----0----|------0-----0----||-----------------|
D|--10-----10---10-|--10-----10---10-|----7-----7----7-|----7-----7----7-||-----------------|
A|-8-----8-----8---|-8-----8-----8---|--5-----5----5---|--5-----5----5---||-----------------|
E|-----------------|-----------------|-----------------|-----------------||-----------------|
                       
             Зажглись         и          потихоньку           догорим.

e|-----------------|-----------------|-----------------|-----------------||-----------------|
B|-----------------|-----------------|-----------------|-----------------||-----------------|
G|----0------0-----|----0------0-----|------0-------0--|----------0----0-||-----------------|
D|--10-----10---10-|--10-----10---10-|----10------10---|--10---10----10--||----10-----------|
A|-8-----8-----8---|-8-----8-----8---|--0-------0------|-0---0-----0-----||---0-------------|
E|-----------------|-----------------|-----------------|-----------------||-----------------| 
           Когда       нас        много   начинается           пожар, 

e|-----------------|-----------------|-----------------|-----------------||-----------------|
B|-----------------|-----------------|-----------------|-----------------||-----------------|
G|-----0----0------|-----0----0------|----0------0-----|----0------0-----||-----------------|
D|---0----0-----0--|---0----0-----0--|--10-----10---10-|--10-----10---10-||-----------------|
A|-10--10----10----|-10--10----10----|-8-----8-----8---|-8-----8-----8---||-----------------|
E|-----------------|-----------------|-----------------|-----------------||-----------------| 
       И города      похожи          на        крематорий           и базар. 

e|-----------------|-----------------|-----------------|-----------------||-----------------|
B|-----------------|-----------------|-----------------|-----------------||-----------------|
G|----0------0-----|----0------0-----|------0-------0--|----------0----0-||-----------------|
D|--10-----10---10-|--10-----10---10-|----10------10---|--10---10----10--||----10-----------|
A|-8-----8-----8---|-8-----8-----8---|--0-------0------|-0---0-----0-----||---0-------------|
E|-----------------|-----------------|-----------------|-----------------||-----------------| 
             И все      привыкли         ничего    не          замечать. 

e|-----------------|-----------------|-----------------|-----------------||-----------------|
B|-----------------|-----------------|-----------------|-----------------||-----------------|
G|-----0----0------|-----0----0------|----0------0-----|----0------0-----||-----------------|
D|---0----0-----0--|---0----0-----0--|--10-----10---10-|--10-----10---10-||-----------------|
A|-10--10----10----|-10--10----10----|-8-----8-----8---|-8-----8-----8---||-----------------|
E|-----------------|-----------------|-----------------|-----------------||-----------------| 
        Когда  тебя     не слышат,       для   чего  кричать? 
 
Припев: [Капо на 3-м ладу] [Бой: ↓↓↑⇅↓⇅] 
 Am                 Em         G  
Мы можем помолчать, мы можем петь, 
                     D             Am  
Стоять или бежать, но всё равно гореть. 
                     Em               G  
Огромный синий кит порвать не может сеть, 
                     D             C  
Сдаваться или нет, но всё-равно гореть. 
 
2 Куплет:

e|-----------------|-----------------|-----------------|-----------------||-----------------|
B|-----------------|-----------------|-----------------|-----------------||-----------------|
G|------0-----0----|------0-----0----|------0-------0--|----------0-----0||-----------------|
D|---10----10----10|---10----10----10|----0-------0----|---0----0-----0--||----0------------|
A|-0-----0------0--|-0-----0------0--|-10------10------|-10--10----10----||--10-------------|
E|-----------------|-----------------|-----------------|-----------------||-----------------|
        И снова    небо     замыкает      на себя       Слова и провода. 

e|-----------------|-----------------|-----------------|-----------------||-----------------|
B|-----------------|-----------------|-----------------|-----------------||-----------------|
G|----0------0-----|----0------0-----|------0-----0----|------0-----0----||-----------------|
D|--10-----10---10-|--10-----10---10-|----7-----7----7-|----7-----7----7-||-----------------|
A|-8-----8-----8---|-8-----8-----8---|--5-----5----5---|--5-----5----5---||-----------------|
E|-----------------|-----------------|-----------------|-----------------||-----------------|
      И снова с неба  проливаются на нас    Ответы и вода. 

e|-----------------|-----------------|-----------------|-----------------||-----------------|
B|-----------------|-----------------|-----------------|-----------------||-----------------|
G|----0------0-----|----0------0-----|------0-------0--|----------0----0-||-----------------|
D|--10-----10---10-|--10-----10---10-|----10------10---|--10---10----10--||----10-----------|
A|-8-----8-----8---|-8-----8-----8---|--0-------0------|-0---0-----0-----||---0-------------|
E|-----------------|-----------------|-----------------|-----------------||-----------------| 
       И если   ты        вдруг          начал        что-то понимать, 
e|-----------------|-----------------|-----------------|-----------------||-----------------|
B|-----------------|-----------------|-----------------|-----------------||-----------------|
G|-----0----0------|-----0----0------|----0------0-----|----0------0-----||-----------------|
D|---0----0-----0--|---0----0-----0--|--10-----10---10-|--10-----10---10-||-----------------|
A|-10--10----10----|-10--10----10----|-8-----8-----8---|-8-----8-----8---||-----------------|
E|-----------------|-----------------|-----------------|-----------------||-----------------| 
         И от        прозрений         захотелось         заорать, 
e|-----------------|-----------------|-----------------|-----------------||-----------------|
B|-----------------|-----------------|-----------------|-----------------||-----------------|
G|----0------0-----|----0------0-----|------0-------0--|----------0----0-||-----------------|
D|--10-----10---10-|--10-----10---10-|----10------10---|--10---10----10--||----10-----------|
A|-8-----8-----8---|-8-----8-----8---|--0-------0------|-0---0-----0-----||---0-------------|
E|-----------------|-----------------|-----------------|-----------------||-----------------| 
           Давай кричи,      но тебя     могут     не     понять, 
e|-----------------|-----------------|-----------------|-----------------||-----------------|
B|-----------------|-----------------|-----------------|-----------------||-----------------|
G|-----0----0------|-----0----0------|----0------0-----|----0------0-----||-----------------|
D|---0----0-----0--|---0----0-----0--|--10-----10---10-|--10-----10---10-||-----------------|
A|-10--10----10----|-10--10----10----|-8-----8-----8---|-8-----8-----8---||-----------------|
E|-----------------|-----------------|-----------------|-----------------||-----------------| 
            никто из них        не хочет           ничего менять! 
 
Припев: [Капо на 3-м ладу] [Бой: ↓↓↑⇅↓⇅] 
 Am                 Em            G  
Ты можешь помолчать, ты можешь петь, 
                     D             Am  
Стоять или бежать, но всё равно гореть! 
                     Em               G  
Огромный синий кит порвать не может сеть, 
                     D              Am  
Сдаваться или нет, но всё-равно гореть! 
 
 Am                 Em          G  
Мы можем помолчать, мы можем петь, 
                     D            Am  
Стоять или бежать, но всё равно гореть! 
                     Em            G  
Гори, но не сжигай, иначе скучно жить, 
                     D             C  
Гори, но не сжигай. Гори, чтобы светить... 
 
 
Свернуть Распечатать

Видео