Запрещают песни Цоя, Агата Кристи, Наутилус Помпилиус, Зиверт
Отвечаем в отдельной теме

Madonna - Material Girl, аккорды

Прокрутка
Тональность
Шрифт
100
Material Girl
Madonna

Tabbed by Rees Clissold
reesclissold@hotmail.com

-------------------
-------------------
-3-3---3---3-3---3-
-----3---3-----3---


-------------------
-------------------
-1-1---1---1-1---1-
-----1---1-----1---

-------------------
-------------------
-0-0---0---0-0---0-
-----0---0-----0---


-------------------
-------------------
-3-3---3---3-3---3-
-----3---3-----3---


-------0-----------
-------------------
-5-5-------3-3---3-
-----3---3-----3---


Chorus

-------------
-------------
-3-3-3-3-3-3-
-------------

-------------
-------------
-5-5-5-5-5-5-
-------------

-------------
-2-2-2-2-2-2-
-------------
-------------

-------------
-------------
-3-3-3-3-3-3-
-------------

-------------
-------------
-5-5-5-5-5-5-
-------------

-------------
-------------
-3-3-3-3-3-3-
-------------

Thankyou very much
Rees

www.rooweb.co.uk
www.reesclissold.co.uk
Member of the BTA Army!!!