Запрещают песни Цоя, Агата Кристи, Наутилус Помпилиус, Зиверт
Отвечаем в отдельной теме

Madonna - Ray Of Light, аккорды

Прокрутка
Тональность
Шрифт
100
Artist: Madonna
Album: Ray Of Light
Song: Ray Of Light

Intro
 A         B5        C#5       D5 
---0---0----------------------------------
---2---2----------------------------------
---2---2-----4---4-----6---6-----7---7----
---2---2-----4---4-----6---6-----7---7----
-0---0---0-2---2---2-4---4---4-5---5------
------------------------------------------
                                                                              

Verse
 A          D
-0-0-0-0----2-2-2-2-----------------------
-2-2-2-2----3-3-3-3-----------------------
-2-2-2-2----2-2-2-2-----------------------
-2-2-2-2----0-0-0-0-----------------------
-0-0-0-0----------------------------------
------------------------------------------
 
 

Видео