Макс Корж - Кто здесь отец, аккорды

Прокрутка
Тональность
Шрифт
100
Первый куплет:
e|-----------------------------------------------------------------
B|-----------------------------------------------------------------
G|-----------------------------------------------------------------
D|-----------------------------------------------------------------
A|-----------------------------------------------------------------
E|-4-4-4-4-4-4-4-4-7-7-7-7-7-7-7-7-2-2-2-2-2-2-2-2-0-0-0-0-0-0-0-0-

------------------------------------------------------------------
------------------------------------------------------------------
------------------------------------------------------------------
------------------------------------------------------------------
--------------------------------------------------------------2-1-
-4-4-4-4-4-4-4-4-7-7-7-7-7-7-7-7-2-2-2-2-2-2-2-2-0-0-0-0-0-0------

Молчать! Слушай сюда, муж говорит, пытаться не стоит. 
Сколько раз повторять? непорядок в семье, когда женщина спорит! 
Деньги домой приношу, так, что следи за ребенком, стирай и ни слова! 
Поздно приду, значит, должен быть ужин горячим, готовым!

Припев: 
G#m B F# 
Нужен порядок, чтоб знали все, 
E
С кем лучше не спорить, не злить наконец, 
G#m B F# 
Кто здесь хозяин - глава в семье???
E
Кто здесь папа, кто здесь отец??? 
G#m B F# E
Кто здесь отец???

Проигрыш:
e|-----------------------------------------------------------------
B|-----------------------------------------------------------------
G|-----------------------------------------------------------------
D|-----------------------------------------------------------------
A|-----------------------------------------------------------------
E|-4-4-4-4-4-4-4-4-7-7-7-7-7-7-7-7-2-2-2-2-2-2-2-2-0-0-0-0-0-0-0-0-

------------------------------------------------------------------
------------------------------------------------------------------
------------------------------------------------------------------
------------------------------------------------------------------
--------------------------------------------------------------2-1-
-4-4-4-4-4-4-4-4-7-7-7-7-7-7-7-7-2-2-2-2-2-2-2-2-0-0-0-0-0-0------

Второй мини куплет:
G#m B
Как воспитать ребенка - я знаю, 
F# E
Не думай учить меня хватит. 
G#m B
Надо разговорами, чтоб осознал свой косяк, 
F# E
Но только нельзя бить. 
G#m B
Не уступать где надо припугнуть. 
F# E
Он будет уважать тебя, слушать. 
G#m B
Но, если не дай Бог, вздумает повторить - 
F# E
Ремнем, на колени, в угол, на гречку. 

Припев: 
G#m B F# 
Нужен порядок, чтоб знали все, 
E
С кем лучше не спорить, не злить наконец, 
G#m B F# 
Кто здесь хозяин - глава в семье???
E
Кто здесь папа, кто здесь отец??? 
G#m B F# E
Кто здесь отец???

Проигрыш:
e|-----------------------------------------------------------------
B|-----------------------------------------------------------------
G|-----------------------------------------------------------------
D|-----------------------------------------------------------------
A|-----------------------------------------------------------------
E|-4-4-4-4-4-4-4-4-7-7-7-7-7-7-7-7-2-2-2-2-2-2-2-2-0-0-0-0-0-0-0-0-

------------------------------------------------------------------
------------------------------------------------------------------
------------------------------------------------------------------
------------------------------------------------------------------
--------------------------------------------------------------2-1-
-4-4-4-4-4-4-4-4-7-7-7-7-7-7-7-7-2-2-2-2-2-2-2-2-0-0-0-0-0-0------

Третий куплет:
G#m B
Вы посмотрите на меня, какой я папа. 
F# E
Вы посмотрите на меня, какой я муж, какой я отец. 
G#m B
Да мне бы с вами еще погнать ночами летними до утра, 
F# E
И по свежим улицам пустым нести пакеты на новый флэт. 
G#m B
Я сам не понял, как попал сюда, но мне точно нахер надо, 
F# E
Ставить на место и кричать, хотел я просто лишь любить, 
G#m B
Но так устроена семья, что это надо и так здесь надо. 
F# E
И как бы ты не обходил, все пути ведут в галимый быт, где... 

Припев: 
G#m B F# 
Нужен порядок, чтоб знали все, 
E
С кем лучше не спорить, не злить наконец, 
G#m B F# 
Кто здесь хозяин - глава в семье???
E
Кто здесь папа, кто здесь отец??? 
G#m B F# E
Кто здесь отец???

Проигрыш:
e|-----------------------------------------------------------------
B|-----------------------------------------------------------------
G|-----------------------------------------------------------------
D|-----------------------------------------------------------------
A|-----------------------------------------------------------------
E|-4-4-4-4-4-4-4-4-7-7-7-7-7-7-7-7-2-2-2-2-2-2-2-2-0-0-0-0-0-0-0-0-

------------------------------------------------------------------
------------------------------------------------------------------
------------------------------------------------------------------
------------------------------------------------------------------
--------------------------------------------------------------2-1-
-4-4-4-4-4-4-4-4-7-7-7-7-7-7-7-7-2-2-2-2-2-2-2-2-0-0-0-0-0-0------
 
 

Видео