Зачем удалили Цоя?
Отвечаем в отдельной теме

МакSим - Одиночка, аккорды

Прокрутка
Тональность
Шрифт
100
Em Am B7
e||---0---0--------0---0--------0---0--------2---2---
B||---0---0--------0---0--------1---1--------0---0---
G||---0---0--------0---0--------2---2--------2---2---
D||-2--------0-1-2----------------2------------1-----
A||-----2------------2----2-1-0--------0-1-2---------

Em Am B7
e||--------0---0--------0---0--------0---0------2---2---2-
B||--------0---0--------0---0--------1---1------0---0---0-
G||--------0---0--------0---0--------2---2------2---2---2-
D||-0-1-2---------0-1-2----------------2------------------
A||----------2------------2----2-1-0--------0-1-2---2---2-
 
 Em
 Я закрываю свое небо на замок
   Am B7
 Я рисую, дую и плюю в потолок
 Em
 Мне любви мало, от него устала
   Am B7
 В общем этой ночкой я – одиночка.

Припев: 
   Em
Уи сти сти-би ди-би ди пи
Am B7
Заходи бери ты, забери-бери пи.
   Em
Забери-бери-пи, забери-бери-пири-би
Am B7
Заходи бери-пи, забери бери-пи.
   Em
Мне до утра только небо да вода
Am B7
Я одна до утра и остальное ерунда

 Em
 Эти губи-дуби-ду у, пошли они в пи…
   Am B7
 Дома посижу, лучше дуну-покурю.
 Em
 Мне любви мало, от него устала
   Am B7
 В-общем этой ночкой я – одиночка.

Припев: 
   Em
Уи сти сти-би ди-би ди пи
Am B7
Заходи бери ты, забери-бери пи.
   Em
Забери-бери-пи, забери-бери-пири-би
Am B7
Заходи бери-пи, забери бери-пи.
   Em
Мне до утра только небо да вода
Am B7
Я одна до утра и остальное ерунда
 
 
Свернуть Распечатать

Видео