Запрещают песни Цоя, Агата Кристи, Наутилус Помпилиус, Зиверт
Отвечаем в отдельной теме

Miley Cyrus - Girls Just Wanna Have Fun, аккорды

Прокрутка
Тональность
Шрифт
100
Tuning: Standard

Intro:

E-----------------------------|
B-----------------------------|
G-7-7-7-7-7-7-7-7-7--7-6-5-4--|
D-7-7-7-7-7-7-7-7-7-----------|
A-5-5-5-5-5-5-5-5-5-----------|
E-----------------------------|
  .................

E--------------------------|
B--------------------------|
G-4-4-4-4-4-4-4-4---4-2-0--|
D-4-4-4-4-4-4-4-4--------4-|
A-2-2-2-2-2-2-2-2--2-2-2---|
E--------------------------|
  ...............

E--------------|
B--------------|
G-12-11-9-11-7-|
D--------------|
A--------------|
E--------------|

E--------------|
B--------------|
G-12-11-9-11-9-|
D--------------|
A--------------|
E--------------|

Verse:


E-----------------------------|
B-----------------------------|
G-7-7-7-7-7-7-7-7-7--7-6-5-4--|
D-7-7-7-7-7-7-7-7-7-----------|
A-5-5-5-5-5-5-5-5-5-----------|
E-----------------------------|
  .................

E--------------------------|
B--------------------------|
G-4-4-4-4-4-4-4-4---4-2-0--|
D-4-4-4-4-4-4-4-4--------4-|
A-2-2-2-2-2-2-2-2--2-2-2---|
E--------------------------|
  ...............

E--------------|
B--------------|
G-12-11-9-11-7-|
D--------------|
A--------------|
E--------------|

E--------------|
B--------------|
G-12-11-9-11-9-|
D--------------|
A--------------|
E--------------|

E-----------------------------------------------------|
B-----------------------------------------------------|
G-7-7777777777-7-5-44-444444444-4-2--------------2-77-|
D-7-7777777777-7-6-44-444444444-4-2-5-55555555-5-2-77-|
A-5-5555555555-5-4-22-222222222-2-0 5-55555555-5-0-55-|
E-----------------------------------3-33333333-3------|
    ..........        .........       ........

Chorus:

E------------------------------------------------|
B------------------------------------------------|
G-777777777777777-444444444444444-3-2------------|
D-777777777777777-444444444444444-4-2-5-55555555-|
A-555555555555555-222222222222222-2-0-5-55555555-|
E-------------------------------------3-33333333-|

Bridge (I guess):

E-----------------------------|
B-----------------------------|
G-7-7-7-7-7-7-7-7-7--7-6-5-4--|
D-7-7-7-7-7-7-7-7-7-----------|
A-5-5-5-5-5-5-5-5-5-----------|
E-----------------------------|


E--------------------------|
B--------------------------|
G-4-4-4-4-4-4-4-4---4-2-0--|
D-4-4-4-4-4-4-4-4--------4-|
A-2-2-2-2-2-2-2-2--2-2-2---|
E--------------------------|


E--------------|
B--------------|
G-12-11-9-11-7-|
D--------------|
A--------------|
E--------------|

E--------------|
B--------------|
G-12-11-9-11-9-|
D--------------|
A--------------|
E--------------|

Basically the same as the intro.

Then, play the chorus until the song fades out.
There you go. Enjoy.

Комментарий автора:

.= palm mute
 
 

Видео