Запрещают песни Цоя, Агата Кристи, Наутилус Помпилиус, Зиверт
Отвечаем в отдельной теме

Miley Cyrus - 7 Things, аккорды

Прокрутка
Тональность
Шрифт
100
Tabbed by:dez15
Tuning:Standard

Intro
e|---------------------------------------------------------------------------|
B|---------------------------------------------------------------------------|
G|-----9---------------------------------------------------------------------|
D|-----9-x12-----------------------------------------------------------------|
A|-----7---------------------------------------------------------------------|
E|---------------------------------------------------------------------------|

Verse 1
e|---------------------------------------------------------------------------|
B|---------------------------------------------------------------------------|
G|--9-9-9-9-9-9-9--4-4-4-4-4-4-4--6-6-6-6-6-6-6--4-4-4-4-4-4-4---------------|
D|--9-9-9-9-9-9-9--4-4-4-4-4-4-4--6-6-6-6-6-6-6--4-4-4-4-4-4-4---------------|
A|--7-7-7-7-7-7-7--2-2-2-2-2-2-2--4-4-4-4-4-4-4--2-2-2-2-2-2-2---------------|
E|---------------------------------------------------------------------------|

Pre-Chorus
e|---------------------------------------------------------------------------|
B|---------------------------------------------------------------------------|
G|--2-2-2-2-2-2-2--4-4-4-4-4-4-4--6-6-6-6-6-6-6--6-6-6-6-6-6-6---------------|
D|--2-2-2-2-2-2-2--4-4-4-4-4-4-4--6-6-6-6-6-6-6--6-6-6-6-6-6-6--x2-----------|
A|--0-0-0-0-0-0-0--2-2-2-2-2-2-2--4-4-4-4-4-4-4--4-4-4-4-4-4-4---------------|

Chorus
e|---------------------------------------------------------------------------|
B|---------------------------------------------------------------------------|
G|--9-9-9---4-4-4---6-6-6---4-4-4--2-2-2-2-2-2-2--4-4-4-4-4-4-4--------------|
D|--9-9-9---4-4-4---6-6-6---4-4-4--2-2-2-2-2-2-2--4-4-4-4-4-4-4--x3----------|
A|--7-7-7---2-2-2---4-4-4---2-2-2--0-0-0-0-0-0-0--2-2-2-2-2-2-2--------------|
E|---------------------------------------------------------------------------|

e|---------------------------------------------------------------------------|
B|---------------------------------------------------------------------------|
G|--2-2-2-2-2-2-2--4-4-4-4-4-4-4--6-6-6-6-6-6-6------------------------------|
D|--2-2-2-2-2-2-2--4-4-4-4-4-4-4--6-6-6-6-6-6-6------------------------------|
A|--0-0-0-0-0-0-0--2-2-2-2-2-2-2--4-4-4-4-4-4-4------------------------------|
E|---------------------------------------------------------------------------|

Verse as same.

Chorus
e|---------------------------------------------------------------------------|
B|---------------------------------------------------------------------------|
G|--9-9-9---4-4-4---6-6-6---4-4-4--2-2-2-2-2-2-2--4-4-4-4-4-4-4--------------|
D|--9-9-9---4-4-4---6-6-6---4-4-4--2-2-2-2-2-2-2--4-4-4-4-4-4-4--x2----------|
A|--7-7-7---2-2-2---4-4-4---2-2-2--0-0-0-0-0-0-0--2-2-2-2-2-2-2--------------|
E|---------------------------------------------------------------------------|

e|---------------------------------------------------------------------------|
B|---------------------------------------------------------------------------|
G|--2-2-2-2-2-2-2--4-4-4-4-4-4-4--6-6-6-6-6-6-6------------------------------|
D|--2-2-2-2-2-2-2--4-4-4-4-4-4-4--6-6-6-6-6-6-6------------------------------|
A|--0-0-0-0-0-0-0--2-2-2-2-2-2-2--4-4-4-4-4-4-4------------------------------|
E|---------------------------------------------------------------------------|

Bridge
e|---------------------------------------------------------------------------|
B|---------------------------------------------------------------------------|
G|--9------------4----------6---------4--------------------------------------|
D|--9------------4----------6---------4--------------------------------------|
A|--7------------2----------4---------2--------------------------------------|
E|---------------------------------------------------------------------------|

Chorus
e|---------------------------------------------------------------------------|
B|---------------------------------------------------------------------------|
G|--9-9-9---4-4-4---6-6-6---4-4-4--2-2-2-2-2-2-2--4-4-4-4-4-4-4--------------|
D|--9-9-9---4-4-4---6-6-6---4-4-4--2-2-2-2-2-2-2--4-4-4-4-4-4-4--x2----------|
A|--7-7-7---2-2-2---4-4-4---2-2-2--0-0-0-0-0-0-0--2-2-2-2-2-2-2--------------|
E|---------------------------------------------------------------------------|

e|---------------------------------------------------------------------------|
B|---------------------------------------------------------------------------|
G|--2-2-2-2-2-2-2--4-4-4-4-4-4-4--6-6-6-6-6-6-6------------------------------|
D|--2-2-2-2-2-2-2--4-4-4-4-4-4-4--6-6-6-6-6-6-6------------------------------|
A|--0-0-0-0-0-0-0--2-2-2-2-2-2-2--4-4-4-4-4-4-4------------------------------|
E|---------------------------------------------------------------------------|

Outro
e|---------------------------------------------------------------------------|
B|---------------------------------------------------------------------------|
G|---9-----------------------------------------------------------------------|
D|---9-----------------------------------------------------------------------|
A|---7-----------------------------------------------------------------------|
E|---------------------------------------------------------------------------|
 
 

Видео