Запрещают песни Цоя, Агата Кристи, Наутилус Помпилиус, Зиверт
Отвечаем в отдельной теме

Miley Cyrus - Dont Wanna Be Torn, аккорды

Прокрутка
Тональность
Шрифт
100
Key: Eb
Tuning: Standard EADGBe

Intro: Eb

Guitar 2:
e|---------------------------------|
B|-4---6---4---6---4---6---4---6---|
G|---3---3---3---3---3---3---3---4-|
D|---------------------------------|
A|---------------------------------|
E|---------------------------------|

Verse 1:
Eb
Maybe it's the things I say
Bb/D                  Cm G#
Maybe I should think before I speak
   Eb
But I thought that I knew enough
  Bb/Eb
To know myself and Do
           Cm G#
what's right for me

Refrain 1:
       G#
And these walls I'm building
     Bb
now You used to bring down
     Cm
And the tears I'm crying
   G#
out you used to wipe away

Chorus 1:
G#                  Eb/G
  I thought you said it was easy
Cm            Bb  Cm Bb
  Listening to your heart
G#                  Eb/G
  I thought you said I'd be okay
Cm               Bb
  So why Am I breaking apart?
             G#
Don't wanna be torn
             Eb
Don't wanna be torn
             Bb
Don't wanna be torn
Don't wanna be torn

Guitar 2: Chorus
e|-11----13----11----13----11----13----11----13----|
B|----11----11----11----11----11----11----11----11-|
G|-------------------------------------------------|
D|-------------------------------------------------|
A|-------------------------------------------------|
E|-------------------------------------------------|

Interlude: Eb

Verse 2:
Eb
  Don't make me have to choose
     Bb/D
between what I want
              Cm  G#
and what you think I need
      Eb
Cos I'll alway be your little
      Bb/D
girl But even little girls
          Cm  G#
they've got To dream

Refrain 2:
     G#
Now it all feels like a fight
      Bb
You were always on my side
     Cm
And the lonely I feel now
        G#
You used to make it Go away

Chorus 2:
G#                  Eb/G
  I thought you said it was easy
Cm            Bb  Cm Bb
  Listening to your heart
G#                  Eb/G
  I thought you said I'd be okay
Cm               Bb
  So why Am I breaking apart?
Don't wanna be torn

Bridge:
Cm
Why is all this so confusing
Bb
complicated and assuming
G#
Why does all this make me angry
Bb
Wanna Go back to being happy

Guitar Solo: G# Eb/G

   Cm
The tears I'm crying now
   Bb
You used to wipe away

Guitar Solo:
     G#       Eb/G       Cm             Bb
e|-11-11-------|-13-13-------|-18-18-------|-16-16-15-15-13-13-11-11-|
B|-------11-11-|-------11-11-|-------16-16-|-------------------------|
G|-------------|-------------|-------------|-------------------------|
D|-------------|-------------|-------------|-------------------------|
A|-------------|-------------|-------------|-------------------------|
E|-------------|-------------|-------------|-------------------------|
       x2            x2            x2

Chorus 3:
G#                  Eb/G
  I thought you said it was easy
Cm            Bb  Cm Bb
  Listening to your heart
G#                  Eb/G
  I thought you said I'd be okay
Cm               Bb
  So why Am I breaking apart?
             G#
Don't wanna be torn
             Eb
Don't wanna be torn
             Bb
Don't wanna be torn
Don't wanna be torn
             G#
Don't wanna be torn
             Eb/G
Don't wanna be torn
             Bb
Don't wanna be torn
             Eb Bb/D (hold)
Don't wanna be torn
 
 

Видео