Запрещают песни Цоя, Агата Кристи, Наутилус Помпилиус, Зиверт
Отвечаем в отдельной теме

Miley Cyrus - Wake Up America, аккорды

Прокрутка
Тональность
Шрифт
100
Verses:
e|---------------------------------------------------------------------------|
B|---------------------------------------------------------------------------|
G|---9-----------------------------------------------------------------------|
D|---9----6----7----6----7---------------------------------------------------|
A|---7----6----7----6----7---------------------------------------------------|
E|--------4----5----4----5---------------------------------------------------|

e|---------------------------------------------------------------------------|
B|---------------------------------------------------------------------------|
G|---9-----------------------------------------------------------------------|
D|---9----6----7----6----9---------------------------------------------------|
A|---7----6----7----6----9---------------------------------------------------|
E|--------4----5----4----7---------------------------------------------------|

Chorus:
e|---------------------------------------------------------------------------|
B|---------------------------------------------------------------------------|
G|----------9-----9----------------------------------------------------------|
D|----7-----9-----9-----x3---------------------------------------------------|
A|----7-----7-----6----------------------------------------------------------|
E|----5----------------------------------------------------------------------|

e|---------------------------------------------------------------------------|
B|---------------------------------------------------------------------------|
G|---------------------------------------------------------------------------|
D|----9-----6-----7----------------------------------------------------------|
A|----9-----6-----7----------------------------------------------------------|
E|----7-----4-----5----------------------------------------------------------|

Bridge:
e|---------------------------------------------------------------------------|
B|---------------------------------------------------------------------------|
G|----9----------------------------------------------------------------------|
D|----9----7-----9-----6-----7-----9-----6-----7-----9-----6-----7-----9-----|
A|----7----7-----9-----6-----7-----9-----6-----7-----9-----6-----7-----9-----|
E|---------5-----7-----4-----5-----7-----4-----5-----7-----4-----5-----7-----|

End Chorus:
e|---------------------------------------------------------------------------|
B|---------------------------------------------------------------------------|
G|----------9-----9----------------------------------------------------------|
D|----7-----9-----9-----x3---------------------------------------------------|
A|----7-----7-----6----------------------------------------------------------|
E|----5----------------------------------------------------------------------|

e|---------------------------------------------------------------------------|
B|---------------------------------------------------------------------------|
G|--------------------------9------------------------------------------------|
D|----9-----------6----7----9------------------------------------------------|
A|----9-----------6----7----7------------------------------------------------|
E|----7-----------4----5-----------------------------------------------------|
 
 

Видео