Запрещают песни Цоя, Агата Кристи, Наутилус Помпилиус, Зиверт
Отвечаем в отдельной теме

Miley Cyrus - Goodbye, аккорды

Прокрутка
Тональность
Шрифт
100
 CAPO:2

These are the actual fret numbers. 
Don't count from the capo, count from the nut.

Intro & verse(dont lay top 2 strings on "this part")
---0--------------------|---0------------------------|
---0----- 0-------------|---0------0-----------------|
---11-------11--2X------|---10-------10----2X--------|
---11--11---------------|---11--11-------------------|
 -----------------------|----------------------------|
------------------------|----------------------------|

|----0--------------------|----0----------------------|
|----0-----0--------------|----0-----0----------------|
|----11------11---2X------|----10------10-------------|
|----9---9----------------|----11--11------2X---------|
|-------------------------|---------------------------|
|-------------------------|---------------------------|

Prechorus:(now play every string except for the one xed out)
       to life                    And i dont mind
|----- ---------------------|---------------------------|
|------ --------------------|---------------------------|
|---8-----------------------|------4--------------------|
|---8----play until---------|------4--------------------|
|---6-----------------------|------2--------------------|
|---X-----------------------|------X--------------------|

CHORUS:
i remember when we               kissed
|-----------------------|----------------------------|
|-----------------------|----------------------------|
|-----11----------------|-----4----------------------|
|-----11----------------|-----4----------------------|
|-----9-----------------|-----2----------------------|
|-----------------------|----------------------------|

i still feel on my                lips
e||-----------------------|---------------------------|
B||-----------------------|---------------------------|
G||-----6-----------------|-------6-------------------|
D||-----4-----------------|-------4-------------------|
A||-----X-----------------|---------------------------|
E||-----6-----------------|---------------------------|

repeat this for "the time the you dances with me 
with no music playin" and "i remember the simple things. 
i remember till i cry"

C                    D
But the one thing i wish id forget
C               D
The memory i wanna forget was saying  good..

and then start back on the chorus and play that for the next verse,
next chorus, and solo part between the chorus and the bridge, 
except for the prechorus.

Bridge

sudennly my                  cellphones blowing up
|-------------------------|--------------------------|
|-------------------------|--------------------------|
|----4--------------------|---------6----------------|
|----4--------------------|---------6----------------|
|-------------------------|---------4----------------|
|-------------------------|--------------------------|
|-------------------------|--------------------------|

with your                       ringtone
|-------------------------|--------------------------|
|-------------------------|--------------------------|
|------6------------------|------6-------------------|
|------4------------------|------4-------------------|
|------x------------------|--------------------------|
|------6------------------|--------------------------|


repeat for "i hesitate but answer it anyways. you sound so alone"

and im suprised to                 hear you say
|-------------------------|--------------------------|
|-------------------------|--------------------------|
|------4------------------|---6----------6-----------|
|------4------------------|---6----------4-----------|
|-------------------------|---4----------------------|
|-------------------------|--------------------------|

play chorus but let the strings ring out til "music playin"
 and then at the very end play the intro 2xs.
 
 

Видео