Запрещают песни Цоя, Агата Кристи, Наутилус Помпилиус, Зиверт
Отвечаем в отдельной теме

Miley Cyrus - Breakout, аккорды

Прокрутка
Тональность
Шрифт
100
Intro:
e|---------------------------------------------------------------------------|
B|---------------------------------------------------------------------------|
G|----9----4-----------------------------------------------------------------|
D|----9----4-----7-----9-----x2----------------------------------------------|
A|----7----2-----7-----9-----------------------------------------------------|
E|---------------5-----7-----------------------------------------------------|

Verse:
e|---------------------------------------------------------------------------|
B|---------------------------------------------------------------------------|
G|----9----4-----------------------------------------------------------------|
D|----9----4-----7-----9-----x3----------------------------------------------|
A|----7----2-----7-----9-----------------------------------------------------|
E|---------------5-----7-----------------------------------------------------|

Pre-chorus:
e|---------------------------------------------------------------------------|
B|---------------------------------------------------------------------------|
G|----4----6----2------------------------------------------------------------|
D|----4----6----2------------------------------------------------------------|
A|----2----4----0------------------------------------------------------------|
E|---------------------------------------------------------------------------|

Chorus:
e|---------------------------------------------------------------------------|
B|---------------------------------------------------------------------------|
G|----9----4-----------------------------------------------------------------|
D|----9----4-----7-----9-----------------------------------------------------|
A|----7----2-----7-----9----x3-----------------------------------------------|
E|---------------5-----7-----------------------------------------------------|

e|---------------------------------------------------------------------------|
B|---------------------------------------------------------------------------|
G|----6----4----9----2-------------------------------------------------------|
D|----6----4----9----2-------------------------------------------------------|
A|----4----2----7----0-------------------------------------------------------|
E|---------------------------------------------------------------------------|

Bridge:
e|---------------------------------------------------------------------------|
B|---------------------------------------------------------------------------|
G|----4----6----2------------------------------------------------------------|
D|----4----6----2---x2-------------------------------------------------------|
A|----2----4----0------------------------------------------------------------|
E|---------------------------------------------------------------------------|

Order:
-Intro
-Verse
-Pre-chorus
-Chorus
-Intro
-Pre-chorus
-Chorus
-Bridge
-Intro
-Chorus
 
 

Видео