Запрещают песни Цоя, Агата Кристи, Наутилус Помпилиус, Зиверт
Отвечаем в отдельной теме

Miley Cyrus - Who Owns My Heart, аккорды

Прокрутка
Тональность
Шрифт
100
### INTRO / VERSЕ ###
e|----------------|----------------|----------------|----------------|
B|----------------|----------------|----------------|----------------|
G|----------------|----------------|----------------|----------------|
D|----------------|----------------|----------------|----------------|
A|--7--7--7--7----|--3--3--3--3----|--0--0--0--0----|--2--2--2--2----|
D|--777777777777--|--333333333333--|--000000000000--|--222222222222--|

### PRЕ-CHORUS ###
e|----------------|----------------|----------------|----------------|
B|----------------|----------------|----------------|----------------|
G|----------------|----------------|----------------|----------------|
D|--3-------------|--7-------------|--3-------------|------9---13----|
A|--3-------------|--7-------------|--3-------------|--2---7---11----|
D|--3-------------|--7-------------|--3-------------|--2-------------|

e|-------------------------------------------------------------------|
B|-------------5--------9----------10--------------------------------|
G|-------------------------------------------------------------------|
D|--[or is the music to blaaa aaaa aaame]----------------------------|
A|-------------------------------------------------------------------|
D|-------------------------------------------------------------------|

### CHORUS ###
e|----------------|----------------|----------------|----------------|
B|----------------|----------------|----------------|----------------|
G|----------------|----------------|----------------|----------------|
D|--14------------|--10------------|--7-------------|--9-------------|
A|--12------------|--8-------------|--5-------------|--7-------------|
D|----------------|----------------|----------------|----------------|

### INTERLUDЕ ###
e|----------------|----------------|----------------|----------------|
B|----------------|----------------|----------------|----------------|
G|----------------|----------------|----------------|----------------|
D|--0-------------|--2-------------|--3-------------|--5-------------|
A|--0-------------|--2-------------|--3-------------|--5-------------|
D|--0-------------|--2-------------|--3-------------|--5-------------|


### END CHORD ###
e|-------------------------------------------------------------------|
B|-------------------------------------------------------------------|
G|-------------------------------------------------------------------|
D|--7----------------------------------------------------------------|
A|--7----------------------------------------------------------------|
D|--7----------------------------------------------------------------|
 
 

Видео