Запрещают песни Цоя, Агата Кристи, Наутилус Помпилиус, Зиверт
Отвечаем в отдельной теме

Miley Cyrus - Best Of Both Worlds, аккорды

Прокрутка
Тональность
Шрифт
100
Intro: C# G# Ebm F# }x2

Guitar 2:
e|-------------|-----------------|
B|-4-6-4---6---|-4-6-4---4-------|
G|-------6---4-|-------6---6-5-6-|
D|-------------|-----------------|
A|-------------|-----------------|
E|-------------|-----------------| x2

Verse 1:
        C#     G# Ebm F#
You get the limo out front
      C#       G#       Ebm F#
Hottest styles, every shoe, every color
           C#        G#     Ebm F#
Yea when you're famous it can be kinda fun
        C#         G#    Ebm  F#
It's really you but no one ever discovers

Refrain 1:
B
  In some ways you're just
   C#
like all your friends
B                C#
  But on stage you're a star

Chorus 1:
        Eb G# Bb
You get the best of both worlds
      Cm        G#
Chilling out, take it slow
      Bb
Then you rock out the show
        Cm G# Bb
You get the best of both worlds
Fm            Eb/G
Mix it all together and you
G#                    (Repeat Intro)
know that it's the best of both worlds
The best of both worlds

Verse 2:
       C#     G#  Ebm F#
You Go the movie premiers
(is that Orlando Bloom?)
       C#       G#  Ebm F#
Hear your songs on the radio
     C#       G#     Ebm F#
Living two lives is a little weird
   C#           G#  Ebm F#
But school's cool cuz nobody knows

Refrain 2:
B               C#
  Yea you get to be a small town girl
   B                    C#
But big time when you play your guitar

Chorus 2:
        Eb G# Bb
You get the best of both worlds
      Cm        G#
Chilling out, take it slow
      Bb
Then you rock out the show
        Cm G# Bb
You get the best of both worlds
Fm            Eb/G
Mix it all together and you
G#
know that it's the best of both
You know the best of both

Bridge:
Bb   Cm G#
worlds
Pictures and autographs
Bb Cm         G#
      You get your face in
all the magazines
Bb Cm G#
         The best part is that
Bb
  you get to be whoever you wanna be
C#
  Yea best of both
You get the best of both
Come on best of both

Guitar 2: at "Pictures and Autographs"
e|---------------|---------------|---------------|
B|-3-4-6--4------|-3-4--6-4------|-3-4-6--4------|
G|----------3--1-|----------3--5-|----------3--1-|
D|---------------|---------------|---------------|
A|---------------|---------------|---------------|
E|---------------|---------------|---------------|

e|-------6-6-6-6-6-6--|
B|-----4--------------|
G|-3-3----------------|
D|--------------------|
A|--------------------|
E|--------------------|

  at "yeah the best of both"
e|----------------2--1-|-------------------1-|-------------------|
B|---------------------|----------------4----|-------------------|
G|-6-6--6-6--6-6-------|-6-6--6-6--6-6-------|-6-6--6-6--6-6-6-6-|
D|-6-6--6-6--6-6-------|-6-6--6-6--6-6-------|-6-6--6-6--6-6-6-6-|
A|-4-4--4-4--4-4-------|-4-4--4-4--4-4-------|-4-4--4-4--4-4-4-4-|
E|---------------------|---------------------|-------------------|

Refrain 3:
B
  Who would've thought that a
C#
girl like me Would
B            C# Eb
double as a superstar

Chorus 3: Modulate from Eb to F
        F  Bb C
You get the best of both worlds
      Dm        Bb
Chilling out, take it slow
      C
Then you rock out the show
        Dm Bb C
You get the best of both worlds
Gm            F/A
Mix it all together and you
Bb
know that it's the best of both

Chorus 4:
        F  Bb C
You get the best of both worlds
         Dm       Bb
put out that shape in my hand
     C
you can Go anywhere
        Dm Bb C
You get the best of both worlds
Gm              F/A
Mix it all together oh yeah
   Bb
It's all much better coz you
know you got the best of both worlds

Комментарий автора:

Chords used:
C# -  x46664
G# -  466544
Ebm - x68876
F# -  244322
B -   x24442
Cm -  x35543
Eb -  x68886
Bb -  x13331
Fm -  133111
Eb/G - 365xxx
Dm -  xx0231
F -   133211
C -   x32010
Gm -  355333
F/A - x032xx
 
 

Видео