Запрещают песни Цоя, Агата Кристи, Наутилус Помпилиус, Зиверт
Отвечаем в отдельной теме

Miley Cyrus - Rockstar, аккорды

Прокрутка
Тональность
Шрифт
100
Tuning: Drop D

Intro:
E|---------------------------------------------------------------------------|
B|---------------------------------------------------------------------------|
G|---------------------------------------------------------------------------|x2
D|-----------------------------------4-2-0-----------------------------------|
A|----5-4-5-----55445------554-5---00----------------------------------------|
D|-00--------44---------55---------------------------------------------------|

E|---------------------------------------------------------------------------|
B|---------------------------------------------------------------------------|
G|---------------------------------------------------------------------------|x2
D|-----------------------------------4-2-0-----------------------------------|
A|----5-4-5-----55445------554-5---00----------------------------------------|
D|-00--------44---------55---------------------------------------------------|
   ** * * *  ** *****   ** *** *   *** * *
Verse 1
E|---------------------------------------------------------------------------|
B|---------------------------------------------------------------------------|
G|-44444444--66666666--------------------------------------------------------|
D|-44444444--66666666--55555555--44444444--5555555555555555--7777777777777777|
A|-22222222--44444444--55555555--44444444--5555555555555555--7777777777777777|
D|---------------------55555555--44444444--5555555555555555--7777777777777777|

Chorus				  4th time play:
E|---------------------------|    |------------------------------------------|
B|---------------------------|    |------------------------------------------|
G|-777-----------------------|x3  |------------------------------------------|
D|-777-777-111111-55555------|    |-55555555-7-------------------------------|
A|-555-777-111111-55555------|    |-55555555-7-------------------------------|
D|-----777-111111-55555------|    |-55555555-7-------------------------------|
       3 sets of "11"

After Chorus:
E|---------------------------------------------------------------------------|
B|---------------------------------------------------------------------------|
G|-777-----------------------------------------------------------------------|x2
D|-777-777-101010-55555------------------------------------------------------|
A|-555-777-101010-55555------------------------------------------------------|
D|-----777-101010-55555------------------------------------------------------|

Intro piece:
E|---------------------------------------------------------------------------|
B|---------------------------------------------------------------------------|
G|---------------------------------------------------------------------------|x2
D|-----------------------------------4-2-0-----------------------------------|
A|----5-4-5-----55445------554-5---00----------------------------------------|
D|-00--------44---------55---------------------------------------------------|
   ** * * *  ** *****   ** *** *   *** * *

Verse 2:
E|---------------------------------------------------------------------------|
B|---------------------------------------------------------------------------|
G|-44444444--66666666--------------------------------------------------------|
D|-44444444--66666666--55555555--44444444--5555555555555555--7777777777777777|
A|-22222222--44444444--55555555--44444444--5555555555555555--7777777777777777|
D|---------------------55555555--44444444--5555555555555555--7777777777777777|

Chorus:				  4th time play:
E|---------------------------|    |------------------------------------------|
B|---------------------------|    |------------------------------------------|
G|-777-----------------------|x3  |------------------------------------------|
D|-777-777-111111-55555------|    |-55555555-7-------------------------------|
A|-555-777-111111-55555------|    |-55555555-7-------------------------------|
D|-----777-111111-55555------|    |-55555555-7-------------------------------|
       3 sets of "11"

Breakdown:
Intro piece:
E|---------------------------------------------------------------------------|
B|---------------------------------------------------------------------------|
G|---------------------------------------------------------------------------|x2
D|-----------------------------------4-2-0-----------------------------------|
A|----5-4-5-----55445------554-5---00----------------------------------------|
D|-00--------44---------55---------------------------------------------------|

After Chorus:			  4th time play:
E|---------------------------|    |------------------------------------------|
B|---------------------------|    |------------------------------------------|
G|-777-----------------------|x3  |------------------------------------------|
D|-777-777-101010-55555------|    |-1111111111-10----------------------------|
A|-555-777-101010-55555------|    |-1111111111-10----------------------------|
D|-----777-101010-55555------|    |-1111111111-10----------------------------|
				  5 sets of "11"

Chorus(during solo):		  4th time play:
E|---------------------------|    |------------------------------------------|
B|---------------------------|    |------------------------------------------|
G|-777-----------------------|x3  |------------------------7-----------------|
D|-777-777-111111-55555------|    |-55555555-7----55555555-7-----------------|
A|-555-777-111111-55555------|    |-55555555-7----55555555-5-----------------|
D|-----777-111111-55555------|    |-55555555-7----55555555-------------------|
       3 sets of "11"

Outro:
E|---------------------------|    |------------------------------------------|
B|---------------------------|    |------------------------------------------|
G|-777-----------------------|x4  |-7----------------------------------------|
D|-777-777-101010-55555------|    |-7-Let Ring-------------------------------|
A|-555-777-101010-55555------|    |-5----------------------------------------|
D|-----777-101010-55555------|    |------------------------------------------|
 
 

Видео