Запрещают песни Цоя, Агата Кристи, Наутилус Помпилиус, Зиверт
Отвечаем в отдельной теме

Miley Cyrus - The Climb (solo), аккорды

Прокрутка
Тональность
Шрифт
100
e---------------------------------------------------------------------------|
b----------9-10-10-9------------------9-10-10-9-----------------------------|
g-9-9-9-11-----------11-9----9-9-9-11-----------11-9------------------------|
d---------------------------------------------------------------------------|
a---------------------------------------------------------------------------|
e---------------------------------------------------------------------------|

e---------------------------------------------------------------------------|
b--9-10-9-----------------------------------------9-10-12-------------------|
g----------11-9------------------8-9------8-9-11----------------------------|
d----------------9^(half bend)--------11------------------------------------|
a---------------------------------------------------------------------------|
e---------------------------------------------------------------------------|
 
 

Видео