Запрещают песни Цоя, Агата Кристи, Наутилус Помпилиус, Зиверт
Отвечаем в отдельной теме

Miley Cyrus - Scars, аккорды

Прокрутка
Тональность
Шрифт
100
Intro:
e|-------------------------------------------------------------------|
B|-------------------------------------------------------------------|
G|-------------------------------------------------------------------|
D|-------------------------------------------------------------------|
A|-2-2-2-2-2-2-2-2-2-2-2-2-2-2-2-2--0-0-0-0-0-0-0-0-0-0-0-0-0-0-0-0--|
E|-------------------------------------------------------------------|

Verse:
I can pretend that I dont see you,
I can pretend I dont wanna hold you when you're around, 
(When you're around)
I can say that nothing was right,
But we know if I looked in your eyes I'd break down,
e|-------------------------------------------------------------------|
B|-------------------------------------------------------------------|
G|-------------------------------------------------------------------|
D|-------------------------------------------------------------------| X3
A|-2-2-2-2-2-2-2-2-2-2-2-2-2-2-2-2--0-0-0-0-0-0-0-0-0-0-0-0-0-0-0-0--|
E|-------------------------------------------------------------------|

After 2 times, this over dubs. 
You can try it or keep the driving riff from the original verse.

(Overdub)
e|-------------------------------------------------------------------|
B|-3----3----3----3----3----3----3----3------------------------------|
G|-2----2----2----2----2----2----2----2------------------------------|
D|-0----0----0----0----0----0----0----0------------------------------|
A|-------------------------------------------------------------------|
E|-------------------------------------------------------------------|

After playing the verse line 3 times, 
finish with this right before the chorus:

(yeah, lets break down)
e|-------------------------------------------------------------------|
B|-------------------------------------------------------------------|
G|-------------------------------------------------------------------|
D|-------------------------------------------------------------------|
A|-2-2-2-2-2-2-2-2-2-2-2-2-2-2-2-2-----------------------------------|
E|----------------------------------3-3-3-3-3-3-3-3-3-3-3-3-3-3-3-3--|

Chorus: (strum straight driving 8th notes)

If I could, for just one night, to be with you, to make it right
e|-------------------------------------------------------------------|
B|-3-3-3-3-3-3-3-3-3-3-3-3-3-3-3-3-----------------------------------|
G|-2-2-2-2-2-2-2-2-2-2-2-2-2-2-2-2--2-2-2-2-2-2-2-2-2-2-2-2-2-2-2-2--|
D|-0-0-0-0-0-0-0-0-0-0-0-0-0-0-0-0--2-2-2-2-2-2-2-2-2-2-2-2-2-2-2-2--|
A|----------------------------------0-0-0-0-0-0-0-0-0-0-0-0-0-0-0-0--|
E|-------------------------------------------------------------------|

What we were, And what we are, is hidden in the scars
e|-------------------------------------------------------------------|
B|-------------------------------------------------------------------|
G|-------------------------------------------------------------------|
D|-2-2-2-2-2-2-2-2-2-2-2-2-2-2-2-2--5-5-5-5-5-5-5-5-5-5-5-5-5-5-5-5--|
A|-2-2-2-2-2-2-2-2-2-2-2-2-2-2-2-2--5-5-5-5-5-5-5-5-5-5-5-5-5-5-5-5--|
E|-0-0-0-0-0-0-0-0-0-0-0-0-0-0-0-0--3-3-3-3-3-3-3-3-3-3-3-3-3-3-3-3--|

If I could, take you there, I wont let go, this I swear,
e|-------------------------------------------------------------------|
B|-3-3-3-3-3-3-3-3-3-3-3-3-3-3-3-3-----------------------------------|
G|-2-2-2-2-2-2-2-2-2-2-2-2-2-2-2-2--6-6-6-6-6-6-6-6-6-6-6-6-6-6-6-6--|
D|-0-0-0-0-0-0-0-0-0-0-0-0-0-0-0-0--7-7-7-7-7-7-7-7-7-7-7-7-7-7-7-7--|
A|----------------------------------4-4-4-4-4-4-4-4-4-4-4-4-4-4-4-4--|
E|-------------------------------------------------------------------|

You wont have to wonder what we are, 
Cause you wont have to look to far,
Its in the scars
e|-------------------------------------------------------------------|
B|-------------------------------------------------------------------|
G|----------------------------------5-5-5-5-5-5-5-5------------------|
D|-2-2-2-2-2-2-2-2-2-2-2-2-2-2-2-2--5-5-5-5-5-5-5-5--5---------------|
A|-2-2-2-2-2-2-2-2-2-2-2-2-2-2-2-2--3-3-3-3-3-3-3-3--5---------------|
E|-0-0-0-0-0-0-0-0-0-0-0-0-0-0-0-0-------------------3---------------|

Intro:
It's hidden in the scars
e|-------------------------------------------------------------------|
B|-------------------------------------------------------------------|
G|-------------------------------------------------------------------|
D|-------------------------------------------------------------------|
A|-2-2-2-2-2-2-2-2-2-2-2-2-2-2-2-2--0-0-0-0-0-0-0-0-0-0-0-0-0-0-0-0--|
E|-------------------------------------------------------------------|

Repeat the first verse including the overdub:

If I told you that I love you,
But Im doing alright without you it'd be a lie, But I could try,
Id run 1000 miles we're leaving,
You're the only one, I want you breathing to break down,
e|-------------------------------------------------------------------|
B|-------------------------------------------------------------------|
G|-------------------------------------------------------------------|
D|-------------------------------------------------------------------| X3
A|-2-2-2-2-2-2-2-2-2-2-2-2-2-2-2-2--0-0-0-0-0-0-0-0-0-0-0-0-0-0-0-0--|
E|-------------------------------------------------------------------|

(Overdub)
e|-------------------------------------------------------------------|
B|-3----3----3----3----3----3----3----3------------------------------|
G|-2----2----2----2----2----2----2----2------------------------------|
D|-0----0----0----0----0----0----0----0------------------------------|
A|-------------------------------------------------------------------|
E|-------------------------------------------------------------------|

After playing the verse line 3 times, finish with this 
right before the chorus:

(yeah lets break down!)
e|-------------------------------------------------------------------|
B|-------------------------------------------------------------------|
G|-------------------------------------------------------------------|
D|-------------------------------------------------------------------|
A|-2-2-2-2-2-2-2-2-2-2-2-2-2-2-2-2-----------------------------------|
E|----------------------------------3-3-3-3-3-3-3-3-3-3-3-3-3-3-3-3--|

There is a synth overdub throughout this entire verse as well and 
I have included it in case you want to play it. It sounds great, 
it may actually be one of my favourite riffs from the album.

(Synth Overdub)-It just shifts back and forth between Bm and Amaj
e|-------------------2-----------------------------------------------|
B|-3----3-----3-----------5--3-----2-----2----2------5---3-2---------|
G|---4----4-----4--4---4--------------2----2----2--2---2-------------| X4
D|-------------------------------------------------------------------|
A|-------------------------------------------------------------------|
E|-------------------------------------------------------------------|

Repeat chorus:
If I could, for just one night, to be with you, to make it right
e|-------------------------------------------------------------------|
B|-3-3-3-3-3-3-3-3-3-3-3-3-3-3-3-3-----------------------------------|
G|-2-2-2-2-2-2-2-2-2-2-2-2-2-2-2-2--2-2-2-2-2-2-2-2-2-2-2-2-2-2-2-2--|
D|-0-0-0-0-0-0-0-0-0-0-0-0-0-0-0-0--2-2-2-2-2-2-2-2-2-2-2-2-2-2-2-2--|
A|----------------------------------0-0-0-0-0-0-0-0-0-0-0-0-0-0-0-0--|
E|-------------------------------------------------------------------|

What we were, And what we are, is hidden in the scars
e|-------------------------------------------------------------------|
B|-------------------------------------------------------------------|
G|-------------------------------------------------------------------|
D|-2-2-2-2-2-2-2-2-2-2-2-2-2-2-2-2--5-5-5-5-5-5-5-5-5-5-5-5-5-5-5-5--|
A|-2-2-2-2-2-2-2-2-2-2-2-2-2-2-2-2--5-5-5-5-5-5-5-5-5-5-5-5-5-5-5-5--|
E|-0-0-0-0-0-0-0-0-0-0-0-0-0-0-0-0--3-3-3-3-3-3-3-3-3-3-3-3-3-3-3-3--|

If I could, take you there, I wont let go, this I swear,
e|-------------------------------------------------------------------|
B|-3-3-3-3-3-3-3-3-3-3-3-3-3-3-3-3-----------------------------------|
G|-2-2-2-2-2-2-2-2-2-2-2-2-2-2-2-2--6-6-6-6-6-6-6-6-6-6-6-6-6-6-6-6--|
D|-0-0-0-0-0-0-0-0-0-0-0-0-0-0-0-0--7-7-7-7-7-7-7-7-7-7-7-7-7-7-7-7--|
A|----------------------------------4-4-4-4-4-4-4-4-4-4-4-4-4-4-4-4--|
E|-------------------------------------------------------------------|

You wont have to wonder what we are, Cause you wont have to look to far,
Its in the scars
e|-------------------------------------------------------------------|
B|-------------------------------------------------------------------|
G|----------------------------------5-5-5-5-5-5-5-5------------------|
D|-2-2-2-2-2-2-2-2-2-2-2-2-2-2-2-2--5-5-5-5-5-5-5-5--5---------------|
A|-2-2-2-2-2-2-2-2-2-2-2-2-2-2-2-2--3-3-3-3-3-3-3-3--5---------------|
E|-0-0-0-0-0-0-0-0-0-0-0-0-0-0-0-0-------------------3---------------|

Bridge:
Yeah I'll tell you all my secrets
All the ones I've kept inside
And I'll give you all the reasons
That you faded from my life 
e|--------------------------------------------|
B|------------------3-------------------------|
G|------------------2-------2-----------------| X3
D|--4--------5------0-------2-----------------|
A|--4--------5--------------0-----------------|
E|--2--------3--------------------------------|

On the fourth time play this:

I won't let you go, Baby come here close
I won't let you walk away!
e|-----------------------------------------|
B|---------------3-------------------------|
G|---------------2------2--4---------------|
D|--4------5-----0------2--4--4--5--2------|
A|--4------5------------0--2--4--5--2------|
E|--2------3------------------2--3--0------|

Chorus again:
If I could, for just one night, to be with you, to make it right
e|-------------------------------------------------------------------|
B|-3-3-3-3-3-3-3-3-3-3-3-3-3-3-3-3-----------------------------------|
G|-2-2-2-2-2-2-2-2-2-2-2-2-2-2-2-2--2-2-2-2-2-2-2-2-2-2-2-2-2-2-2-2--|
D|-0-0-0-0-0-0-0-0-0-0-0-0-0-0-0-0--2-2-2-2-2-2-2-2-2-2-2-2-2-2-2-2--|
A|----------------------------------0-0-0-0-0-0-0-0-0-0-0-0-0-0-0-0--|
E|-------------------------------------------------------------------|

What we were, And what we are, is hidden in the scars
e|-------------------------------------------------------------------|
B|-------------------------------------------------------------------|
G|-------------------------------------------------------------------|
D|-2-2-2-2-2-2-2-2-2-2-2-2-2-2-2-2--5-5-5-5-5-5-5-5-5-5-5-5-5-5-5-5--|
A|-2-2-2-2-2-2-2-2-2-2-2-2-2-2-2-2--5-5-5-5-5-5-5-5-5-5-5-5-5-5-5-5--|
E|-0-0-0-0-0-0-0-0-0-0-0-0-0-0-0-0--3-3-3-3-3-3-3-3-3-3-3-3-3-3-3-3--|

If I could, take you there, I wont let go, this I swear,
e|-------------------------------------------------------------------|
B|-3-3-3-3-3-3-3-3-3-3-3-3-3-3-3-3-----------------------------------|
G|-2-2-2-2-2-2-2-2-2-2-2-2-2-2-2-2--6-6-6-6-6-6-6-6-6-6-6-6-6-6-6-6--|
D|-0-0-0-0-0-0-0-0-0-0-0-0-0-0-0-0--7-7-7-7-7-7-7-7-7-7-7-7-7-7-7-7--|
A|----------------------------------4-4-4-4-4-4-4-4-4-4-4-4-4-4-4-4--|
E|-------------------------------------------------------------------|

You wont have to wonder what we are, 
Cause you wont have to look to far,
Its in the scars
e|-------------------------------------------------------------------|
B|-------------------------------------------------------------------|
G|----------------------------------5-5-5-5-5-5-5-5------------------|
D|-2-2-2-2-2-2-2-2-2-2-2-2-2-2-2-2--5-5-5-5-5-5-5-5--5-5-5-5-5-5-5-5-|
A|-2-2-2-2-2-2-2-2-2-2-2-2-2-2-2-2--3-3-3-3-3-3-3-3--5-5-5-5-5-5-5-5-|
E|-0-0-0-0-0-0-0-0-0-0-0-0-0-0-0-0-------------------3-3-3-3-3-3-3-3-|

It's hidden in the scars!
e|-------------------------------------------------------------------|
B|-3-3-3-3-3-3-3-3-3-3-3-3-3-3-3-3-----------------------------------|
G|-2-2-2-2-2-2-2-2-2-2-2-2-2-2-2-2--6-6-6-6-6-6-6-6-6-6-6-6-6-6-6-6--|
D|-0-0-0-0-0-0-0-0-0-0-0-0-0-0-0-0--7-7-7-7-7-7-7-7-7-7-7-7-7-7-7-7--|
A|----------------------------------4-4-4-4-4-4-4-4-4-4-4-4-4-4-4-4--|
E|-------------------------------------------------------------------|

e|-------------------------------------------------------------------|
B|-------------------------------------------------------------------|
G|----------------------------------5-5-5-5-5-5-5-5------------------|
D|-2-2-2-2-2-2-2-2-2-2-2-2-2-2-2-2--5-5-5-5-5-5-5-5--5-5-5-5-5-5-5-5-|
A|-2-2-2-2-2-2-2-2-2-2-2-2-2-2-2-2--3-3-3-3-3-3-3-3--5-5-5-5-5-5-5-5-|
E|-0-0-0-0-0-0-0-0-0-0-0-0-0-0-0-0-------------------3-3-3-3-3-3-3-3-|

Finale:
I can pretend that I dont see you,
I can pretend I dont wanna hold you when your around
e|---------------------------------------------------------------------|
B|-------------------------------------------------------------------3-|
G|-------------------------------------------------------------------4-|
D|-------------------------------------------------------------------4-|
A|-2-2-2-2-2-2-2-2-2-2-2-2-2-2-2-2--0-0-0-0-0-0-0-0-0-0-0-0-0-0-0-0--2-|
E|---------------------------------------------------------------------|
*Strum final Bm once and let it ring.
 
 

Видео