Запрещают песни Цоя, Агата Кристи, Наутилус Помпилиус, Зиверт
Отвечаем в отдельной теме

Miley Cyrus - Butterfly Fly Away, аккорды

Прокрутка
Тональность
Шрифт
100
Capo 4 

Intro:
e|-3----------3----------3----------3-----------|
B|-3----------3----------3----------3-----------|
G|-----0----------0----------0----------0-------|
D|----2----------0----------2----------0--------|
A|-3-----3----2-----2----0-----0----2-----2-----|
E|----------------------------------------------|

e|-3----------3----------3----------3-----------|
B|-3----------3----------3----------3-----------|
G|-----0----------0----------0-----------0------|
D|----2----------0----------2-----------0-------|
A|-3-----3----2-----2----0-----0----2-----------|
E|----------------------------------------------|

Verse 1:
e|-3----------3----------3----------3----------|
B|-3----------3----------3----------3----------|
G|-----0----------0----------0----------0------|
D|----2----------0----------2----------0-------|
A|-3-----3----2-----2----0-----0----2-----2----|
E|---------------------------------------------|
You tucked...Turn out...kept me....sound at...

e|-3----------3----------3----------3----------|
B|-3----------3----------3----------3----------|
G|-----0----------0----------0----------0------|
D|----2----------0----------2----------0-------|
A|-3-----3----2-----2----0-----0----2-----2----|
E|---------------------------------------------|
little.......depend on..things...that.........

e|-3----------3----------3----------3----------|
B|-3----------3----------3----------3----------|
G|-----0----------0----------0----------0------|
D|----2----------0----------2----------0-------|
A|-3-----3----2-----2----0-----0----2-----2----|
E|---------------------------------------------|
brushed my...combed my..had to.....everywhere.

e|-3----------3----------3----------3----------|
B|-3----------3----------3----------3----------|
G|-----0----------0----------0----------0------|
D|----2----------0----------2----------0-------|
A|-3-----3----2-----2----0-----0----2-----2----|
E|---------------------------------------------|
 you were....there......looked back...........

Verse 2:
Either continue same picking pattern or for more advanced 
play the following FAST*

e|-3------3------3------3------3------3------3------3----|
B|-3------3------3------3------3------3------3------3----|
G|----0------0------0------0------0------0------0------0-|
D|---2------2------0------0------2------2------0------0--|
A|-3----3--------2----2--------0----0--------2----2------|
E|-------------------------------------------------------|
You had to....it all alone...make a .......make a home...

e|-3------3------3------3------3------3------3------3----|
B|-3------3------3------3------3------3------3------3----|
G|----0------0------0------0------0------0------0------0-|
D|---2------2------0------0------2------2------0------0--|
A|-3----3--------2----2--------0----0--------2----2------|
E|-------------------------------------------------------|

Must have......Hard as it.....could be...................

e|-3------3------3------3------3------3------3------3----|
B|-3------3------3------3------3------3------3------3----|
G|----0------0------0------0------0------0------0------0-|
D|---2------2------0------0------2------2------0------0--|
A|-3----3--------2----2--------0----0--------2----2------|
E|-------------------------------------------------------|
and when i.....sleep at......scared.........wouldnt......

e|-3------3------3------3------3------3------3------3----|
B|-3------3------3------3------3------3------3------3----|
G|----0------0------0------0------0------0------0------0-|
D|---2------2------0------0------2------2------0------0--|
A|-3----3--------2----2--------0----0--------2----2------|
E|-------------------------------------------------------|
You would......my hand.......and sing to me..............

Chorus:
e|-3---------3---------3---------3---------3---------3---------3---|
B|-3---------3---------3---------3---------3---------3---------3--3|
G|--------------2-------------------2---------0---------0--------2-|
D|----0--------3----------0--------3---------0---------2-------0---|
A|---2-------3----3------2-------3----3----2----2----0----2--------|
E|-3----3--------------3----3--------------------------------------|
Caterpillar.in.......how ya.....wonder....can't go..far.......dream

e|-3---------3---------3---------3---------3---------3---------3---|
B|-3---------3---------3---------3---------3---------3---------3--3|
G|--------------2-------------------2---------0---------0--------2-|
D|----0--------3----------0--------3---------0---------2-------0---|
A|---2-------3----3------2-------3----3----2----2----0----2--------|
E|-3----3--------------3----3--------------------------------------|
wish you....wish you..don't you.hold on...i.........there.....day..

Bridge:
e|-3----------3----------3----------3----------|
B|-3----------3----------3----------3----------|
G|-----0----------0----------0----------0------|
D|----2----------0----------2----------0-------|
A|-3-----3----2-----2----0-----0----2-----2----|
E|---------------------------------------------|

Butterfly fly away...

e|-3----------3----------3----------3----------|
B|-3----------3----------3----------3----------|
G|-----0----------0----------0----------0------|
D|----2----------0----------2----------0-------|
A|-3-----3----2-----2----0-----0----2-----2----|
E|---------------------------------------------|


e|-3----------3----------3----------3----------|
B|-3----------3----------3----------3----------|
G|-----0----------0----------0----------0------|
D|----2----------0----------2----------0-------|
A|-3-----3----2-----2----0-----0----2-----2----|
E|---------------------------------------------|
Butterfly....away.......got your.......you.....

e|-3----------3----------3----------3----------|
B|-3----------3----------3----------3----------|
G|-----0----------0----------0----------0------|
D|----2----------0----------2----------0-------|
A|-3-----3----2-----2----0-----0----2-----2----|
E|---------------------------------------------|
Take those...dreams....come.....true...........

e|-3----------3----------3----------3----------|
B|-3----------3----------3----------3----------|
G|-----0----------0----------0----------0------|
D|----2----------0----------2----------0-------|
A|-3-----3----2-----2----0-----0----2-----2----|
E|---------------------------------------------|

e|-3----------3----------3----------3----------|
B|-3----------3----------3----------3----------|
G|-----0----------0----------0----------0------|
D|----2----------0----------2----------0-------|
A|-3-----3----2-----2----0-----0----2-----2----|
E|---------------------------------------------|
Butterfly....away.......you've.....for.........

e|-3----------3----------3----------3----------|
B|-3----------3----------3----------3----------|
G|-----0----------0----------0----------0------|
D|----2----------0----------2----------0-------|
A|-3-----3----2-----2----0-----0----2-----2----|
E|---------------------------------------------|
All along....you........do.....................

Continue strum but *slower* or for more advanced....  
*Medium speed*

e|-3------3------3------3------3------3------3------3----|
B|-3------3------3------3------3------3------3------3----|
G|----0------0------0------0------0------0------0------0-|
D|---2------2------0------0------2------2------0------0--|
A|-3----3--------2----2--------0----0--------2----2------|
E|-------------------------------------------------------|
Butterfly       Butterfly     Butterfly     Butterfly fly

e|-3------3------3------3------3------3------3------3----|
B|-3------3------3------3------3------3------3------3----|
G|----0------0------0------0------0------0------0------0-|
D|---2------2------0------0------2------2------0------0--|
A|-3----3--------2----2--------0----0--------2----2------|
E|-------------------------------------------------------|
away.....................................................

e|-3------3------3------3------3------3------3------3----|
B|-3------3------3------3------3------3------3------3----|
G|----0------0------0------0------0------0------0------0-|
D|---2------2------0------0------2------2------0------0--|
A|-3----3--------2----2--------0----0--------2----2------|
E|-------------------------------------------------------|

e|-3------3------3------3------3------3------3------3----|
B|-3------3------3------3------3------3------3------3----|
G|----0------0------0------0------0------0------0------0-|
D|---2------2------0------0------2------2------0------0--|
A|-3----3--------2----2--------0----0--------2----2------|
E|-------------------------------------------------------|
Butterfly........fly.........away.......... 
*Let each note ring a little 
for picking pattern transition*

e|-3----------3----------3----------3----------|
B|-3----------3----------3----------3----------|
G|-----0----------0----------0----------0------|
D|----2----------0----------2----------0-------|
A|-3-----3----2-----2----0-----0----2-----2----|
E|---------------------------------------------|

e|-3----------3----------3----------3----------|
B|-3----------3----------3-----3----3----------|
G|-----0----------0----------0----------0------|
D|----2----------0----------2----------0-------|
A|-3-----3----2-----2----0-----0----2-----2----|
E|---------------------------------------------|

e|-3----------3----------3----------3----------|
B|-3----------3----------3----------3----------|
G|-----0----------0----------0----------0------|
D|----2----------0----------2----------0-------|
A|-3-----3----2-----2----0-----0----2-----2----|
E|---------------------------------------------|
Butterfly....fly........away..................

Ending:
e|-3----------3----------3----------3----------|
B|-3----------3----------3----------3----------|
G|-----0----------0----------0----------0------|
D|----2----------0----------2----------0-------|
A|-3-----3----2-----2----0-----0----2-----2----|
E|---------------------------------------------|

e|-3----------3----------3----------3----------|
B|-3----------3----------3----------3----------|
G|-----0----------0----------0----------0------|
D|----2----------0----------2----------0-------|
A|-3-----3----2-----2----0-----0----2-----2----|
E|---------------------------------------------|

e|-3----------3----------3----------3-------x---|
B|-3----------3----------3----------3---3---3---|
G|-----0----------0----------0--------2-----0---|
D|----2----------0----------2-------0-------0---|
A|-3-----3----2-----2----0-----0------------2---|
E|------------------------------------------3---|
*stum but don't play top string*
 
 

Видео