Mcfly - She Left Me, аккорды

Прокрутка
Тональность
Шрифт
100
Title: She Left Me
Artist: McFly
Tuning: Eadgbe (standard tuning)
Tabbed By: Lewis Mitchell (lewismitchell234@hotmail.com)

Intro/Verse (bass)
|----------------------------------------------|
|-------------------0---0----------------------|
|-------2---2-3---3-------3-2------------------|
|-3---3------------------------3---------------|


Intro/Verse/Chorus (guitar)
|-----------3----------------------3-----------|
|--------3----3----------------3------3--------| 
|-----0----------0----------0-------------0----|  
|----------------------------------------------|   
|-----------------------2----------------------|    
|-3--------------------------------------------|     
                                                                            
|------------3-----------------------3---------|     /  x 2
|---------3----3-----------------3-----3-------|    /
|-----0-----------0----------0-----------0-----|   /
|-------------------------0--------------------|  /
|--3-------------------------------------------| /
|----------------------------------------------|/



Not figured out the solo yet but heer ya go anyways
 
 
Свернуть Распечатать