Me First And The Gimme Gimmes - Seasons in the Sun, аккорды

Прокрутка
Тональность
Шрифт
100
Intro
[E-----------------------------------------------------------
B-----------------------------------------------------------
G-----------------------------------------------------------
D-----------------------------------------------------------
A--0-1-2-0---0-1-2-0---0-1-2-0-4----------------------------
E--0-0-0-0---0-0-0-0---0-0-0-0-2----------------------------]

Rhythm Figure 1.
with snare and bass (repeat)
[E-----------------------------------------------------------------
B-----------------------------------------------------------------
G-----------------------------------------------------------------
D-----------------------------------------------------------------
A-----------------------------------------------------------------
E--2-2-2-0-2-2-2-0-2-2-2-0-2-2-2-0-4-4-4-0-4-4-4-0-4-4-4-0-4-4-4-0

E------------------------------------------------------------------
B------------------------------------------------------------------
G------------------------------------------------------------------
D------------------------------------------------------------------
A-----------------------------------------4-4-4--------------------
E--2-2-2-0-2-2-2-0-2-2-2-0-2-2-2-0-4-4-4-0-----4-2-----------------]

Rhythm Figure 2.
with an upward strum
[E------------------------------------
B--7-7-7-7-9-9-9-9-7-7-7-7-----------
G--6-6-6-6-8-8-8-8-6-6-6-6-----------
D--4-4-4-4-6-6-6-6-4-4-4-4-444444444-
A--------------------------444444444-
E--------------------------222222222-]

Chorus 1.
B   A#   D#   B

Fill 1.
[E----------
B----------
G----------
D----------
A--0-1-2-4-
E--0-0-0-2-]

Rhythm Fig. 1.
Rhythm Fig. 2.

Chorus 2.
B   A#   D#   B
A   B   E   A

Fill 1.
Rhythm Fig. 1.
Rhythm Fig. 2.

Chorus 3.
B   A#   D#   B
A   B   E   A
C   C   F   C    
 
 

Видео