Me First And The Gimme Gimmes - Country Roads, аккорды

Прокрутка
Тональность
Шрифт
100
COUNTRY ROADS - Me First And The Gimme Gimme


By: Kin Law - снаdm_musка00@hotmail.com

Here is another version that I figure it sound much closer then the other 
one. Figure out the sтrокing yourself.

pm = palm muted
/ or  = slide

Intro:
e|---------------------------------------------------------------------------|
B|---------------------------------------------------------------------------|
G|-------------------------4-/-7---------------------------------------------|
D|-7---------4-/-7--2-----4-/-7---------------------------------------------| (Play 2 times)
A|-7---------4-/-7--2-----2-/-5---------------------------------------------|
E|-5---------2-/-5--0-------------------------------------------------------|

Verse:
e|---------------------------------------------------------------------------|
B|---------------------------------------------------------------------------|
G|----------------7----------------------------------------------------------|
D|-7----4----2----7----7-----------------------------------------------------|   (Play 2 times)
A|-7----4----2----5----7-----------------------------------------------------|
E|-5----2----0---------5-----------------------------------------------------|
   pm   pm   pm

Chorus:
e|---------------------------------------------------------------------------|
B|---------------------------------------------------------------------------|
G|-------------7-----------7-------------------------------------------------|
D|-7---2---4---7---7---2---7---7---------------------------------------------|    (Play 2 times)
A|-7---2---4---5---7---2---5---7---------------------------------------------|
E|-5---0---2-------5---0-------5---------------------------------------------|

Bridge:
e|---------------------------------------------------------------------------|
B|---------------------------------------------------------------------------|
G|-------------7-------------------7-----------9-----------------------------|
D|-4---2---7---7---7---2---4---5---7---7---2---9-----------------------------|
A|-4---2---7---5---7---2---4---5---5---7---2---7-----------------------------|
E|-2---0---5-------5---0---2---3-------5---0---------------------------------|

Outro:
e|---------------------------------------------------------------------------|
B|---------------------------------------------------------------------------|
G|-------------7-------------------------------------------------------------|
D|-2---7---2---7---7---------------------------------------------------------|
A|-2---7---2---5---7---------------------------------------------------------|
E|-0---5---0-------5---------------------------------------------------------|

Order:
Intro
Verse
Chorus
Verse
Chorus
Bridge
Chorus
Outro

==========


----------------------------------------------------------------
          COUNTRY ROADS (solo)-Me First and the Gimme Gimmes
----------------------------------------------------------------

By-epiTG a.к.a. AARON

/=BEND
^=SLUR

E------------------------------------------------l------------------------------------------------------------------l
B--12/--12/--------------------------------------l------------------------------------------------------------------l
G---------------------------14---------------14--l--14--16--14-------------14--16--14--------14---------------------l
D-----------------14^16-------14^16--------------l------------------16--14-------------------16--------16--14-------l
A------------------------------------------------l--------------------------------------------------------------16--l
E------------------------------------------------l------------------------------------------------------------------l

E--------------------------------------------------------------------------------l
B-------------------------------------------------------------------12/----------l
G--------------------------------------------------------------------------------l
D--14----------------------------------------------------------14----------------l
A-------16--14^12--14--12----------------------------12--14----------------------l
E--------------------------------------14--12--14--------------------------------l