Meg Myers - Monster, аккорды

Прокрутка
Тональность
Шрифт
100
Verse 1:
|5--5--5--5--8--8--8--8--|
|------------------------|
|--7--7--7--7--7--7--7--7|
|------------------------|
|------------------------|
|------------------------|

I got to know that your heart beats fast and
I got to know I'm the only one for you
What have I become?
I'm a fucking monster
When all I wanted was something beautiful

|1--1--1--1--3--3--3--3--|
|--3--3--3--3--5--5--5--5|
|------------------------|
|------------------------|
|------------------------|
|------------------------|

My love too much
Your love not enough
My love too much
       G5
Your love...

Chorus:
A5  C5            F5           A5          C5  F5
Oh, what it takes out of me to lay by your side
A5  C5      F5               
Oh, how it aches and it aches
A5             C5   F5
You make me wanna die
                  A5 C5 F5
I gotta kill you, my love
                  A5 C5 F5
I gotta kill you, my love
A5  C5            F5           A5          C5 F5
Oh, what it takes out of me to lay by your side

Verse 2:
|5--5--5--5--8--8--8--8--|
|------------------------|
|--7--7--7--7--7--7--7--7|
|------------------------|
|------------------------|
|------------------------|

You said forever
Now you look right through me
You said forever
Did your words fall short like you
What have I done?
I'm a fucking monster
When all I wanted was something beautiful

|1--1--1--1--3--3--3--3--|
|--3--3--3--3--5--5--5--5|
|------------------------|
|------------------------|
|------------------------|
|------------------------|

My love too much
Your love not enough
My love too much
Your love..

Chorus:
A5  C5            F5           A5          C5 F5
Oh, what it takes out of me to lay by your side
A5  C5      F5               
Oh, how it aches and it aches
A5             C5   F5
You make me wanna die
                  A5 C5 F5
I gotta kill you, my love
                  A5 C5 F5
I gotta kill you, my love
A5  C5            F5           A5          C5 F5
Oh, what it takes out of me to lay by your side

A5 C5 F5 

|1--1--1--1--3--3--3--3--|
|--3--3--3--3--5--5--5--5|
|------------------------|
|------------------------|
|------------------------|
|------------------------|

My love too much
Your love not enough
My love too much
Your love..
 
 
Свернуть Распечатать

Видео