Metallica - Until It Sleeps, аккорды

Прокрутка
Тональность
Шрифт
100
Tunnning: down 1/2 step

Bass Intro:       
|--------------------------------|
|--------------------------------|
|------------------------------0-|
|---0-5--7/8--7--0-5--7/8--1-----|
sl.          sl.

Main Line:                                    Fill 2: (at 3rd verse)
|-------0------------------5--|-------0----------------|
|----------3--1--0---------5--|----------3--1--0-------|
|-------------------2--0---5--|-------------------2--0-|
|----2---------------------7--|----2-------------------|
|-0------------------------7--|--0---------------------|
|--------------------------5--|------------------------|

Chorus: Guitar 1     (4x)           Fill 1: (at bottom)
|-----------|-----------------------------------|
|-----------|.---------------------------------.|
|-----------|-----5---7--5---4--4--5---2--3--2--|
|---5--5--5-|-----7---7--7---5--5--5---3--3--3--|
|---5--5--5-|.-0----0--------------------------.|
|---3--3--3-|-----------------------------------|
pm.

Chorus: Fill 2 (4th time 1st and last chorus)
|----------------------------------------|
|.--------------------------5--5--6-----.|
|-------5---7--5---4--4--5--5--5--5---2--|
|-------7---7--7---5--5--5------------2--|
|.---0----0---------------------------0-.|
|----------------------------------------|

Chorus: Guitar2
|-----------|--5--5--5---------------5--5--5------------------|
|-----------|.-x--x--x---------------x--x--x-----------------.|
|-----------|--x--x--x---------------x--x--x------------------|
|---5--5--5/|--7--7--5--7--7--7----5/7--7--7---7--7--7----5/--|
|---5--5--5/|.-7--7--5--7--7--7----5/7--7--7---8--8--8----5/-.|
|---3--3--3/|--5--5--5--5--5--5----3/5--5--5--------------3/--|
sl. So tear me open.... sl.                     sl.

Bridge:                                                      ~~~~
|-------0---------------------------0-----------------------5-|
|----------3--1--0---------------------3--1-----------------5-|
|-------------------2--0-----------------------0----0-----5---|
|----2----------------------------2------------0----3---7-----|
|-0----------------------------0---------------2----3---------|
|-------------------------0--3--------------3----1------------|

Go back to main, then chorus, then to post chorus.

Post Chorus: Guitar1
|----------------------------------------------------|
|.--------------------------------------------------.|
|---------------------9--9/-------------------9--9/--|
|-----5--7--5---4--4--9--9/---5--7--5---4--4--9--9/--|
|.----7--7--7---5--6--7--7/---7--7--7---5--6--7--7/-.|
|--0----0-----------------------0--------------------|
p.m.             sl.    p.m.             sl.

Post Chorus: Guitar2
|---------------------------------------------|
|.-12--10--8--7------------------------------.|
|----------------8--9-------------------------|
|---9---7--5--4------------5--7--5---4--4--9--|
|.---------------6--7------7--7--7---5--6--7-.|
|----------------------------0----------------|
p.m.

Go Back to bridge, then main, then chorus, and to post chorus.

Solo: With Wah
|-17--17--17---19--19--19---17--17---20--20--20---19--19--19-|
|-17--17--17---17--17--17---17--17---17--17--17---17--17--17-|
|------------------------------------------------------------|
|------------------------------------------------------------|
|------------------------------------------------------------|
|------------------------------------------------------------|

^     ^
|-17--17---17----17---0--0---0---17--15--12--12---15--12-|
|-17--17---20----20--17/15--17---17--15--12--12---15--12-|
|--------Bend-20-------sl.-------------------------------|
|---------Full-------------------------------------------|
|--------------------------------------------------------|
|--------------------------------------------------------|


|-17--17--17--0--0--0----17--17--20--20--20---19--19--19--0--0--0--|
|-17--17--17--17-17-17---17--17--17--17--17---17--17--17--17-17-17-|
|------------------------------------------------------------------|
|------------------------------------------------------------------|
|------------------------------------------------------------------|
|------------------------------------------------------------------|

^      ^
|--17-----17------0--0--0---17--15--12--12---15--12-----------------------|
|--20-----20-----17/15--17--17--15--12--12---15--12------------~~--~~~~---|
|Bend-20----------sl.-------------------------------~~~-----7--9--9/14-14-|
|Full------------------------------------------------7--9-10--------------|
|-------------------------------------------------------------------------|
|-------------------------------------------------------------------------|

|-------------------------------------------------------12--14--15-|
|---------------------~~~~-----------------------12--15------------|
|-~~~------7--9--9/12-12--~~~------7--9--9/12--14------------------|
|--7--9-10-----------------7--9-10---------------------------------|
|------------------------------------------------------------------|
|------------------------------------------------------------------|

^  ^   ^   ^
|--17-17--17--17~~~~~~~~~~~~--|
|-----------------------------|
|------------All-17s-Full-----|
|-----------------------------|
|-----------------------------|
|-----------------------------|

Guitar 1: During Solo
Listen to the song for the rythm and when it's played.
|---0-------------------------------0--|
|---1-------------------------------1--|
|---2-------------------------------2--|
|---2-------------------------------2--|
|---0-------------------------------0--|
|--------------------------------------|

|----------------0---------------------0--------0-------0----------0-|
|-------------------3--1--0---------------3--1--1---------3--1--0--1-|
|------------------------------------------------------------------2-|
|------------2---------------------2-------------------------------2-|
|--0--2--3-----------------------3--------------------2------------0-|
|---------------------------------------------------3----------------|

Now go to chorus and play it twice, the 2nd time Both guitars play
Guitar2's part, finally, go back to the main line and let the bass
finish it off.

Fill 1:
|---------------------------|
|----^-----~~~~----h---~~~~-|
|----7--7--5------5-7--5----|
|Bend-Full------------------|
|---------------------------|
|---------------------------|
There's things inside without a care

Fill 2:
|-5------5------5-----5---|
|---5-------5-----5-----5-|
|-----2-------2-----2-----|
|-------------------------|
|-------------------------|
|-------------------------|
So tell me why you've chosen me

|---5-----5-----5-----5-----5-|
|-----5-----5-----5-----5----5|
|-------5-----5-----5-----5---|
|-----------------------------|
|-----------------------------|
|-----------------------------|
Don't want your grip...

Bass Finish:
|--------------------------------|
|--------------------------------|
|------------------------------0-|
|---0-5--7/8--7--0-5--2/3--1-----|
sl.          sl.

Комментарий автора:

h=hammer on
/=slide
^=bend
~=vibrato
pm=palm mute
Ah=Artificial Harmonic
x=muffled string
 
 

Видео