Mighty Mighty Bosstones - Noise Brigade, аккорды

Прокрутка
Тональность
Шрифт
100
Noise Brigade
By the BossToneS
from Let's Face It



intro and chorus

     

G----------------------------------------------2-2------- 
D----------2-4-5-4-2-2-4-------------2-4-5-4--------0----
A--0-0-0---------------------0-0-0-----------------------
E--------------------------------------------------------


verse

G---------------------4--------------------2--2-4-2------
D---------2-4-------------------6-7----0-4---------------
A-0-0--4-------2-2-2-------4-4---------------------------
E--------------------------------------------------------

I think that's how it goes. Peace! cap'n chris