Mighty Mighty Bosstones - Wrong Thing Right Then, аккорды

Прокрутка
Тональность
Шрифт
100
  BTAB: Wrong Thing Right Then
Artist: The Mighty Mighty Bosstones
 Album: The Deedles (soundtrack)
Author: Rattman (jratt0@hotmail.com)


I love this song! Its easier than most bosstones songs too.

Verse:

G-------0--0-2----------
D---0-2--------3--3-0---
A-3-------------------3-
E-----------------------

Chorus:

G-0-0-0----------------------------------
D-------3-3-3-3-3---------2-2-2-2--------
A-----------------3-3-3-3--------3-3-3-3-
E----------------------------------------

Added To Chorus near the End:

G-5-4-2-0-
D---------
A---------
E---------