Михаил Боярский - Ланфрен-ланфра (Голубка), аккорды

Прокрутка
Тональность
Шрифт
100
Вступление:
    Dm
E||-10-12-13-13-10----|
B||----------------10-|

                   Bb
E||-10-12-13-13-10----|
B||----------------11-|

                       C
E||-12--13--15--15--12----|
B||--------------------13-|

                Dm
E||-12--13--12--10--10-|
B||--------------------|

Dm			             Bb
В мой старый сад, ланфрен-ланфра. Лети, моя голубка.
C			   F	          D7
Там сны висят, ланфрен-ланфра, на всех ветвях, голубка.
Gm	             A7	              Dm	      Bb
Ланфрен, ланфра, лантатита, там свеж ручей, трава густа,
Gm	              C               Dm 
Постель из ландышей пуста, лети в мой сад, голубка!

Проигрыш = Вступление
    Dm
E||-10-12-13-13-10----|
B||----------------10-|

                   Bb
E||-10-12-13-13-10----|
B||----------------11-|

                       C
E||-12--13--15--15--12----|
B||--------------------13-|

                Dm
E||-12--13--12--10--10-|
B||--------------------|
Dm			             Bb
Мы легкий сон, ланфрен-ланфра - сорвем с тяжелой ветки.
C			   F	          D7
Как сладок он - ланфрен-ланфра - такие сны так редки.
Gm	             A7	              Dm	Bb
Ланфрен-ланфра-лантатита - но слаще сна твои уста,
Gm	              C               Dm 
и роза падает с куста тебе на грудь, голубка.

Проигрыш = Вступление
    Dm
E||-10-12-13-13-10----|
B||----------------10-|

                   Bb
E||-10-12-13-13-10----|
B||----------------11-|

                       C
E||-12--13--15--15--12----|
B||--------------------13-|

                Dm
E||-12--13--12--10--10-|
B||--------------------|

Dm			             Bb
В моем саду, ланфрен-ланфра - три соловья и ворон.
C			   F	          D7
Они беду, ланфрен-ланфра - любви пророчат хором.
Gm	             A7	              Dm	 Bb
Ланфрен-ланфра-лантатита - свети прощальная звезда,
Gm	              C               Dm 
любовь последняя чиста. Лети в мой сад голубка!

Кода = Вступление
    Dm
E||-10-12-13-13-10----|
B||----------------10-|

                   Bb
E||-10-12-13-13-10----|
B||----------------11-|

                       C
E||-12--13--15--15--12----|
B||--------------------13-|

                Dm
E||-12--13--12--10--10-|
B||--------------------|
 
 
Свернуть Распечатать

Видео