Михаил Боярский - Дворик, аккорды

Прокрутка
Тональность
Шрифт
100
Вступление:
   C	   G     F         G
E||-----3-----3-----|---3------3------|  
B||-1-----1-3---1-1-|-------3---------|   
G||-0-------0-----2-|-------0---------|     x4 
D||-2-------0-----3-|-------0---------|    / 
A||-3-------------3-|-----------------|   /
E||---------3-------|-------3-------3-|  /

    F	         G
E||-----3-----------|
B||-1-----1---------|
G||-2---------0-2-0-|
D||-3---------------|
A||-3---------------|

             C
К любому из нас приходит тот час,
       Am
Когда стоит подвести итог
    Dm                              G
И понять, что детства срок, увы, истек!
              Dm     G                Dm    G
Ты, дворик, меня прости, что дальние ждут пути,
     Dm                        G
За меня никто не сможет их пройти.

             C
Увижу во сне, как будто в кино,
       Am
Старый столик в глубине двора,
    Dm                           G
Стариков, что в тишине сидят с утра.
              Dm     G                Dm G
Услышу ночной порой я голос такой родной.
    Dm                          G
Он зовет, зовет, зовет меня домой!

Припев:
	        C
	Любимый мой дворик, ты очень мне дорог,
	        Am
	Я по тебе буду скучать,
	          F		 Dm
	И будут мне сниться моих друзей лица.
	   F    C             G
	Скорее дай руку и прощай.
	
Проигрыш = Вступление:
   C	   G     F         G
E||-----3-----3-----|---3------3------|  
B||-1-----1-3---1-1-|-------3---------|   
G||-0-------0-----2-|-------0---------|     x4 
D||-2-------0-----3-|-------0---------|    / 
A||-3-------------3-|-----------------|   /
E||---------3-------|-------3-------3-|  /

    F	         G
E||-----3-----------|
B||-1-----1---------|
G||-2---------0-2-0-|
D||-3---------------|
A||-3---------------|

             C
Дарю сразу всем хоккейный свой шлем,
       Am
Быстроногий свой велосипед
    Dm                              G
И транзистор, что порой включал чуть свет.
              Dm     G            Dm G
Сейчас допою и вам гитару свою отдам - 
    Dm                        G
Вспоминайте обо мне хоть иногда.

             C
Мой двор, как гнездо, а я, как птенец,
       Am
Улечу сегодня из него.
    Dm                         G
Ведь начало и конец есть у всего.
              Dm     G                Dm    G
Разлука приходит пусть, но я вам друзья клянусь:
    Dm                              G
Я вернусь. Мой дворик, я к тебе вернусь!

Припев: x3
	        C
	Любимый мой дворик, ты очень мне дорог,
	        Am
	Я по тебе буду скучать,
	          F		 Dm
	И будут мне сниться моих друзей лица.
	   F    C             G
	Скорее дай руку и прощай.

Кода = Вступление:
   C	   G     F         G
E||-----3-----3-----|---3------3------|  
B||-1-----1-3---1-1-|-------3---------|   
G||-0-------0-----2-|-------0---------|     x4 
D||-2-------0-----3-|-------0---------|    / 
A||-3-------------3-|-----------------|   /
E||---------3-------|-------3-------3-|  /

    F	         G
E||-----3-----------|
B||-1-----1---------|
G||-2---------0-2-0-|
D||-3---------------|
A||-3---------------|
 
 
Свернуть Распечатать

Видео