Михаил Боярский - Зеленоглазое такси, аккорды

Прокрутка
Тональность
Шрифт
100
Intro:
E|--13--13--12--13--10---8--5--12--13--10-|
B|----------------------------------------|
G|----------------------------------------|
D|----------------------------------------|
A|----------------------------------------|
E|----------------------------------------|

  Am     F
  Вот и осталось
   Dm       E
  Лишь снять усталость
  Am    F
  И этот вечер
   Dm     E
  Мне душу лечит

Припев:
 E7   Am F     Dm     E E7
 О-о-о-о Зеленоглазое такси
 E7   Am F     Dm     E E7
 О-о-о-о Притормози, притормози
 E7   Am F     Dm     E E7
 О-о-о-о Ты отвези меня туда
 E7   Am F     Dm     E E7
 О-о-о-о Где будут рады мне всегда

  Am     F
  Там и не спросят
   Dm       E
  Где меня носит
  Am     F
  Там, я-то знаю
   Dm       E
  Все понимают

Припев:
 E7   Am F     Dm     E E7
 О-о-о-о Зеленоглазое такси
 E7   Am F     Dm     E E7
 О-о-о-о Притормози, притормози
 E7   Am F     Dm     E E7
 О-о-о-о Ты отвези меня туда
 E7   Am F     Dm     E E7
 О-о-о-о Где будут рады мне всегда

Solo:
E|------------------------------------------|
B|-------5-8-6-6-6-5-6-5-3--6-6-6-6-5-5-3-1-|
G|----2-------------------------------------|
D|------------------------------------------|
A|------------------------------------------|
E|------------------------------------------|

E|------------------------------------------|
B|------5-8-6-6-6-5-6-5-3--6-6-6-6-5-6-8-10-|
G|----2-------------------------------------|
D|------------------------------------------|
A|------------------------------------------|
E|------------------------------------------|
 
 
Свернуть Распечатать

Видео