Михаил Боярский - Голубка, аккорды

Прокрутка
Тональность
Шрифт
100
Проигрыш:
         Dm                 Dm
E|--------------1-----------|--------------1-----------|
B|--------3--------3-----3--|--------3--------3-----3--|
G|-----2-----2--------2-----|-----2-----2--------2-----|
D|--0-----------------------|--0-----------------------|
A|--------------------------|--------------------------|
E|--------------------------|--------------------------|
           A#               A#
E|--------------1-----------|--------------1-----------|
B|--------3--------3-----3--|--------3--------3-----3--|
G|-----3-----3--------3-----|-----3-----3--------3-----|
D|--------------------------|--------------------------|
A|--1-----------------------|--1-----------------------|
E|--------------------------|--------------------------|
           C                 C
E|--------------0-----------|--------------0-----------|
B|--------1--------1-----1--|--------1--------1-----1--|
G|-----0-----0--------0-----|-----0-----0--------0-----|
D|--------------------------|--------------------------|
A|--3-----------------------|--3-----------------------|
E|--------------------------|--------------------------|
           Dm             Dm
E|--------------1-----------|--------1------|
B|--------3-----------3-----|------3--------|
G|-----2-----2-----2-----2--|----2----------|
D|--0-----------------------|--0------------|
A|--------------------------|---------------|
E|--------------------------|---------------|

 Куплет:
E|-------1-----1-----------1-----------|
B|-------------------3--------3-----3--|
G|----------------2-----2--2-----2--3--|
D|-------------0--------3--------------|
A|-------------------------------------|
E|-------------------------------------|

E|--------------1--------1--|--1-----------3-----------|
B|--------1--------1-----1--|--------3--------3-----3--|
G|--3--2--2--2--------2-----|-----3-----3--3-----3--5--|
D|--0--------3--------------|-----------5--------------|
A|--------------------------|--------------------------|
E|--------------------------|--3-----------------------|

E|--------------3--------3--|--3-----------0-----------|
B|--------3--------3-----3--|--------1--1--1--1-----3--|
G|--5--3--3--3--------3-----|-----0-----0--------0--5--|
D|--------------------------|--------------------------|
A|--------------------------|--3-----------------------|
E|--3-----------------------|--------------------------|

E|--------------0--------3--|--3--------5--5--------3--|
B|--3-----1--1-----1-----1--|--------1-----6-----------|
G|-----0--5--0--------0-----|-----2-----2-----5-----5--|
D|--------------------------|--------------------7-----|
A|--3-----------------------|--------------------------|
E|--------------------------|--1-----------------------|

E|--5-----6-----2--------5--|--8--6--------------------|
B|-----------------1--------|--------------8--------4--|
G|-----2--5--2--------2--5--|--------7-----7--7-----7--|
D|--------------------------|-----8-----8--------8-----|
A|--5-----------------------|--------------------------|
E|--------------------------|--3-----------------------|

E|-----------------------3--|--3--------1--------------|
B|--------5--5--5-----------|--------1-----6--------5--|
G|--8--0--5--------5-----5--|-----2-----2--10--5----5--|
D|-----------5--------5-----|--0------------------7----|
A|--------------------------|--------------------------|
E|--8-----------------------|--------------------------|

E|--------------1--------0--|--1-----------3-----------|
B|--5-----3--3-----3-----3--|--------3--------3-----3--|
G|-----3--7--3--------3-----|-----3-----3--3-----3--5--|
D|--------------------------|-----------5--------------|
A|--------------------------|--------------------------|
E|--6-----------------------|--3-----------------------|

E|--1-----0--0--0-----------|--1--------0--0-----------|
B|--------1--------1-----3--|--------1-----6--------3--|
G|-----0-----0--------0--5--|-----2-----2-----5--2--5--|
D|--------------------------|--0-----------------------|
A|--3-----------------------|--------------------------|
E|--------------------------|--------------------------|

E|--0-----1----------------||
B|------3---------3--------||
G|----2--------------------||
D|--0----------------------||
A|-------------------------||
E|-------------------------||

Комментарий автора:

Текст песни: 

В мой старый сад ланфрен ланфра
Лети моя голубка
Там сны весят
Ланфрен ланфра
На всех ветвях голубка
Ланфрен ланфра
Ланта тита
Там свеж ручей трава густа
Постель из ландышей пуста
Лети в мой сад голубка.

Мы легкий сон,
Ланфрен ланфра,
Сорвем с тяжелой ветки.
Как сладок он,
Ланфрен ланфра,
Такие сны так редки.
Ланфрен ланфра,
Лантати та,
Но слаще сна твои уста,
И роза падает с куста,
Тебе на грудь голубка.

В моем саду,
Ланфрен ланфра,
Три соловья и ворон,
Они беду,
Ланфрен ланфра,
Любви пророчат хором.
Ланфрен ланфра,
Лантати та,
Свети прощальная звезда,
чюбовь последняя чиста,
Лети в мой сад голубка.
 
 

Видео