Михаил Круг - Купола, аккорды

Прокрутка
Тональность
Шрифт
100
Вступление: Am Am/C Am Am/E F Bm7-5 E
 
Am     Am/C	    Bm7-5 E7
Дом казенный предо мной,
Am  Am/C     Bm7-5  E7
Да тюрьма центральная,
Am  Am/C     G   C 
Ни копейки за душой
F             A7
Да дорога дальняя.
Dm    Dm/F   Dm/B Bm7-5
Над обрывом пал туман,
E            F   A7
Кони ход прибавили.
Dm    Dm/F   Am     Am/C	 
Я б махнул сейчас стакан,

Проигрыш:
E||---7--8---10--10--8--8--7--7--5--5--4--4---
B||--6---5------------------------------------
G||-7--------10--10--9--9--7--7--5--5--4--4---

E7          Am   Am/C Bm7-5 E7
Если б мне поставили. 

Am     Am/C	    Bm7-5 E7
Ночью в церкви ни души,
Am  Am/C     Bm7-5 E7
Волки в поле воют, 
Am  Am/C     G   C 
А под расстрельную статью
F             A7
Ямы быстро роют.
Dm    Dm/F   Dm/B Bm7-5
Что же не хватало мне? 
E            F   A7
Все теперь на месте:
Dm    Dm/F   Am     Am/C
Был туз бубновый на спине,

Проигрыш:
E||---7--8---10--10--8--8--7--7--5--5--4--4---
B||--6---5------------------------------------
G||-7--------10--10--9--9--7--7--5--5--4--4---

E7          Am   Am/C Bm7-5 E7
А стал в ногах туз крести.

Припев:
Dm  Dm/F    Dm/B  Bm7-5  Am Am/C Am Am/C
Золотые купола душу мою радуют.
Dm      Dm/F     Dm/B   Bm7-5     Gm (Gm6)      A7    
А то не дождь, а то не дождь - слезы с неба капают.
Dm   Dm/F   Dm/B    Bm7-5   Am Am/C Am Am/C
Золотые купола на груди наколоты,
Dm    Dm/F Dm/B Bm7-5 E7    Am Am/C Am Am/C Bm7-5 E7
Только синие они, и ни крапа золота.

Am     Am/C	 Bm7-5 E7
Над обрывом, на краю
Am  Am/C     Bm7-5 E7
Сердце дрожь охватит.
Am  Am/C     G  C 
Жизнь босяцкую мою 
F            A7
Кто переиначит?
Dm    Dm/F   Dm/B Bm7-5
Кто стакан мне поднесет,
E            F   A7
Кто свечу погасит?
Dm    Dm/F   Am     Am/C
Кто простит и кто поймет,

Проигрыш:
E||---7--8---10--10--8--8--7--7--5--5--4--4---
B||--6---5------------------------------------
G||-7--------10--10--9--9--7--7--5--5--4--4---

E7          Am   Am/C Bm7-5 E7
И кто по мне заплачет?
 
 

Видео