Михаил Круг - Чифирнуть бы ништяк, аккорды

Прокрутка
Тональность
Шрифт
100
                                Иногда мне кажеться, что я не
                                              выживу здесь и сорвусь.
E|-6--6--7/9----7--64------9--9--7^9^7---4--6--6/7--64-----9--7--6-|
B|-----------/4--------------------2-------------------------------|
G|-----------------------------------------------------------------|
D|-----------------------------------------------------------------|
A|-----------------------------------------------------------------|
E|-----------------------------------------------------------------|
 
 Но откуда то беруться силы. 
                  Это наверное потому что у меня есть                ты.
------------6--6--4^6--4---------------------------------------------|
--4--6--6/7--7--6^4--------------------9--7--6----6--7--6------------|
---------4---------------------------8----7----8---------------------|
---------------------------------------------------------------------|
---------------------------------------------------------------------|
---------------------------------------------------------------------|

    Dm         Gm
А я мысли свои, как окурки тушу,
    C          F
Третьи сутки я в БУР`е уже зависаю,
  Cm     D       Gm
И в барак возвращаться никак не спешу,
   F(VIII)      A       Dm   
Я по сучьему шепоту здесь "отдыхаю".
 
 Cm    D   Gm 
Поклубит из о рта - небеда,
     C      F 
И еще протянуть бы чуть, чуть.
      B      Gm 
Поломать может жизнь это - да,
   F(VIII)  A  Dm 
Но не всех удаеться согнуть.

    Dm         Gm
И досадно конечно, встречать новый год,
    C          F
Из закуски имея одну только пайку,
  Cm     D       Gm
Холод крепко в объятия ночью бурет,
   F(VIII)      A       Dm   
И ныряет заточкой меж ребер под майку.

 Cm    D   Gm
Чифирнуть бы ништяк, да - голяк,
     C      F 
Только иней на речке искриться,
      B   Gm 
И пока я ЗК.
   F(VIII)  A  Dm 
Это так, до звонка будет длиться и длиться.

    Dm         Gm
В эту ночь загадаю, не фант, не успех.
    C          F
До весны дотянуть бы, а там уже лето,
  Cm     D       Gm
И тогда уж тепла точно хватит на всех.
   F(VIII)      A       Dm   
Не замерзнуть душой бы, ведь главно это!

 Cm    D   Gm
Ты не плачь, дорогая моя,
     C      F 
Хоть последний звонок так далек,
      B      Gm 
Дождь в окно постучит, это я.
   F(VIII)  A  Dm 
Ведь когда-то же кончится срок.

    Dm         Gm
Поклубит из о рта - небеда,
    C          F
Чифирнуть бы ништяк, да - голяк,
  Cm     D       Gm
Ты не плачь, дорогая моя,
   F(VIII)      A  Dm   
И пока я ЗК это так...

 Cm    D   Gm
Поклубит из о рта - небеда,
     C      F 
Чифирнуть бы ништяк, да - голяк,
      B      Gm 
Ты не плачь, дорогая моя,
   F(VIII)  A  Dm 
И пока я ЗК это так...

Комментарий автора:

Обозначения в табулатуре: 
x/y - слайд (извлекаешь звук на (х) ладе и неотпуская ведешь по грифу 
до (y) лада, получаеться звук похожий на легато)
x^y - легато (извлекаешь звук на (х) ладе и неотпуская хуяришь другим пальцем 
этой же руки по (y) ладу.)

Перебор: (I)          
1 |---|---|---|---|---|---|-x-|---|---|---|---|---|
2 |---|---|---|-x-|---|---|---|-x-|---|-x-|---|---|
3 |---|---|-x-|---|-x-|---|---|---|-x-|---|-x-|---|
4 |---|-x-|---|---|---|-x-|---|---|---|---|---|-x-|
5 |-x-|---|---|---|---|---|---|---|---|---|---|---|
6 |---|---|---|---|---|---|---|---|---|---|---|---|

Перебор: (II)          
1 |---|---|---|---|---|---|
2 |---|---|---|-x-|---|---|
3 |---|---|-x-|---|-x-|---|
4 |---|-x-|---|---|---|-x-|
5 |-x-|---|---|---|---|---|
6 |---|---|---|---|---|---|
 
 

Видео