Михаил Круг - Кольщик (вступление), аккорды

Прокрутка
Тональность
Шрифт
100
Вступление:
Dm        
1|---------------------1------------
2|------------3----------------3----
3|--------2-------2-------2-------2-  x4
4|----0-----------------------------

Dm          
1|----------1--------0-------1------
2|---------------3-------3----------
3|------2-------------------------2-
4|----0-----------------------------

Dm/C      
1|-----------------------1---------------
2|---------3--------3------------3-------
3|----2--------2------------2---------2--
4|---------------------------------------
5|----3----------------------------------

Gm        
1|-------------6-------5--------6---------------------------------------
2|------------------------------------3---------------------------------
3|--------3--------3-------3---------------------------3----------------
4|----------------------------------------------5-----------------5-----
5|-----------------------------------------5--------5--------5--------5-
6|----3-------------------------------3---------------------------------

B         
1|------------------------------------------------------------------------0-
2|------------------------3------------3---------------3-------1---3--------
3|---------------3----------------3----------------3-------3----------------
4|----------3--------3-------3----------------3-----------------------------
5|-----1-----------------------------------1--------------------------------

F         
1|---------------------1-----------------------------------------------
2|------------1----------------1----------------1--------3--------1----
3|----2-----------2-------2-------2--------2-------2--------2--------2-
4|--------3------------------------------------------------------------
5|---------------------------------------------------------------------
6|----1----------------------------------1-----------------------------

Gm        
1|----------------------------------
2|---3------------------------------
3|---------------------3------------
4|-----------5-----------------5----
5|-------5-------5--------5-------5-
6|---3------------------------------

C (IV)     
1|---4--------------------------------
2|-----------------------6------------
3|-------------6-----------------6----
4|--------6--------6--------6-------6-
5|---4--------------------------------

Dm        
1|---1------------------------
2|-------------3--------------
3|--------2--------2--------2-
4|---0------------------0-----
 
Dm/C      
1|-------------1---------
2|--------3--------------
3|---2-------------2---3-
4|-----------------------
5|---3-------------------

Gm        
1|--------------------------------
2|-----------------3--------------
3|---3--------3------------3------
4|--------5------------5--------5-
5|--------------------------------
6|---3----------------------------
 
B         
1|----------------------------------
2|---3--------------3---------------
3|--------------3-------------3-----
4|---------3-------------3--------3-
5|---1------------------------------

C (IV)     
1|------------------------------------------------------------4-
2|---6-------------6------------------------------------6-------
3|-------------6-------------6---------------------6------------
4|--------6-------------6--------6------------6-----------------
5|---4-------------------------------------4--------------------

Dm        
1|---1---0-----------------------------
2|------------3--------3---------------
3|-----------------2--------2--------2-
4|---0---------------------------0-----

Комментарий автора:

Аранжировка С.Бондаренко 
 
 
Свернуть Распечатать

Видео