Михаил Круг - Идет этап, аккорды

Прокрутка
Тональность
Шрифт
100
Em
Ты к запретке подойдешь,
B7
Помахаешь мне рукой.
Dm                  E
Улыбнешься как всегда 
              Am
И крикнешь: "Здравствуй!"
B7
Здравствуй добрая моя,
Em                  C
Здравствуй милая моя,
           Am             B7
Не надо печали и так все ясно.

Em
Прошлый раз смотрел в окно
B7
Дождь шел сильный, проливной.
Dm                   E
Мы смотрели друг на друга 
       Am
И молчали.
B7
По твоим щекам текли 
Em                C
Капли летнего дождя,
           Am             B7
А может слезы, слезы печали.

Припев:                                                       
E|---0--------------0-----------------------|
B|------0--------1-----1--------------------|
G|0-----------------------0-----------------|
D|---------2-----------2--0-----------------|
A|------------------3-----------------3--2--|
E|---0--------------------------------------|
            
--------------0--------------2------------------||
-----------1-----1--------4-----4---------------||
--------2-----------2--------------4-------4----||
-----2-----------------2--------4------------4--||
--0--------------------------2------------------||
------------------------------------------------||

        Em  C Am B7
  Идет этап.
        Em  C Am B7
  Идет этап.

Em
Он идет в такую тьму, 
B7
Соликамскую тюрьму,
Dm                   E
"Белый Лебедь" часто сном 
            Am
Кошмарным вижу.
B7
Суки правят беспредел, 
Em              C
Ни один я поседел,
           Am             B7
Думал о тебе, лишь тем и выжил.
Em
Лишь к тебе одной родной
B7
Я стремился всей душой.
Dm              E
У тебя одной молю,
            Am
Прошу прощенья!
B7
Понимаю твою грусть,
Em              C
Но ты ждешь и я вернусь,
           Am             B7
А пока для нас печаль и сожаленье.

Припев:                                                       
E|---0--------------0-----------------------|
B|------0--------1-----1--------------------|
G|0-----------------------0-----------------|
D|---------2-----------2--0-----------------|
A|------------------3-----------------3--2--|
E|---0--------------------------------------|
            
--------------0--------------2------------------||
-----------1-----1--------4-----4---------------||
--------2-----------2--------------4-------4----||
-----2-----------------2--------4------------4--||
--0--------------------------2------------------||
------------------------------------------------||

        Em  C Am B7
  Идет этап.
        Em  C Am B7
  Идет этап.
 
 

Видео