Михаил Круг - Постой, душа, аккорды

Прокрутка
Тональность
Шрифт
100
Вступление:
e|---------3-6--5h6p5-3--------------------------|
B|-------3---------------6-4h6p4-3--3-4-3-1------|
G|-----3------------------------------------3-2--|
D|-4-5-------------------------------------------|

e|---------3-6--5h6p5-3---------3-4-3-4-3h4p3h4p3-|
B|-------3---------------6-4-6--------------------|
G|-----3------------------------------------------|
D|-4-5--------------------------------------------|

e|----------8-11--10h11p10-8--6-4h6p4-3----------|
B|--------8------------------------------9-11-9--|
G|------8----------------------------------------|
D|-9-10------------------------------------------|

e|----------8-11--10h11p10-8--6-5-10--11-10-8----------------|
B|--------8-----------------------------------11-10-8-7-8-10-|
G|------8----------------------------------------------------|
D|-9-10------------------------------------------------------|

Gm               Cm
А по весне моя душа
Gm                 D
Летает на закате дня,
           Gm
Над белой церковью кружа,
G                Cm
Зовёт за облака меня.

Cm
Туман над озером плывёт,
D                Eb
А сердце аж заходится,
Cm                 Gm
Зовёт душа меня, зовёт,
Cm                   D
А мне сто граммов хочется,
Cm   D               Gm
А мне сто граммов хочется...

	      Eb  D           Gm
	Постой душа, моя, постой,
	G           Cm
	Я за тобой, я за тобой,
	Eb                       F
	Махну сто граммов не спеша,
	B                    Eb
	И полечу с тобой, душа,
	Cm                   Eb D
	И полечу с тобой, душа...

Проигрыш = вступление:
e|---------3-6--5h6p5-3--------------------------|
B|-------3---------------6-4h6p4-3--3-4-3-1------|
G|-----3------------------------------------3-2--|
D|-4-5-------------------------------------------|

e|---------3-6--5h6p5-3---------3-4-3-4-3h4p3h4p3-|
B|-------3---------------6-4-6--------------------|
G|-----3------------------------------------------|
D|-4-5--------------------------------------------|

e|----------8-11--10h11p10-8--6-4h6p4-3----------|
B|--------8------------------------------9-11-9--|
G|------8----------------------------------------|
D|-9-10------------------------------------------|

e|----------8-11--10h11p10-8--6-5-10--11-10-8----------------|
B|--------8-----------------------------------11-10-8-7-8-10-|
G|------8----------------------------------------------------|
D|-9-10------------------------------------------------------|

Gm               Cm
А по весне, эх, благодать,
Gm                 D
Листочки распускаются,
           Gm
Душа изволит полетать,
G                Cm
Во всех грехах покаяться.

Cm
Зовёт душа меня, зовёт,
D                Eb
А сердце аж изводится,
Cm                 Gm
То в гости к девочкам зайдет,
Cm                 D
А то в кабак попросится,
Cm   D               Gm
А то в кабак попросится...

	      Eb  D           Gm
	Постой душа, моя, постой,
	G           Cm
	Я за тобой, я за тобой,
	Eb                       F
	Махну сто граммов не спеша,
	B                    Eb
	И полечу с тобой, душа,
	Cm                   Eb D
	И полечу с тобой, душа...

Кода = вступление:
e|---------3-6--5h6p5-3--------------------------|
B|-------3---------------6-4h6p4-3--3-4-3-1------|
G|-----3------------------------------------3-2--|
D|-4-5-------------------------------------------|

e|---------3-6--5h6p5-3---------3-4-3-4-3h4p3h4p3-|
B|-------3---------------6-4-6--------------------|
G|-----3------------------------------------------|
D|-4-5--------------------------------------------|

e|----------8-11--10h11p10-8--6-4h6p4-3----------|
B|--------8------------------------------9-11-9--|
G|------8----------------------------------------|
D|-9-10------------------------------------------|

e|----------8-11--10h11p10-8--6-5-10--11-10-8----------------|
B|--------8-----------------------------------11-10-8-7-8-10-|
G|------8----------------------------------------------------|
D|-9-10------------------------------------------------------|
 
 
Свернуть Распечатать

Видео